  0
SECTION
  2
HEADER
  9
$ACADVER
  1
AC1021
  9
$ACADMAINTVER
 70
    50
  9
$DWGCODEPAGE
  3
ANSI_1252
  9
$LASTSAVEDBY
  1
paolo
  9
$INSBASE
 10
0.0
 20
0.0
 30
0.0
  9
$EXTMIN
 10
-1111.722092687432
 20
-1051.722092687432
 30
0.0
  9
$EXTMAX
 10
300.0
 20
420.0
 30
0.0
  9
$LIMMIN
 10
0.0
 20
0.0
  9
$LIMMAX
 10
12.0
 20
9.0
  9
$ORTHOMODE
 70
     0
  9
$REGENMODE
 70
     1
  9
$FILLMODE
 70
     1
  9
$QTEXTMODE
 70
     0
  9
$MIRRTEXT
 70
     1
  9
$LTSCALE
 40
1.0
  9
$ATTMODE
 70
     1
  9
$TEXTSIZE
 40
0.2
  9
$TRACEWID
 40
0.05
  9
$TEXTSTYLE
  7
Standard
  9
$CLAYER
  8
Predefinito
  9
$CELTYPE
  6
ByLayer
  9
$CECOLOR
 62
   256
  9
$CELTSCALE
 40
1.0
  9
$DISPSILH
 70
     0
  9
$DIMSCALE
 40
1.0
  9
$DIMASZ
 40
0.18
  9
$DIMEXO
 40
0.0625
  9
$DIMDLI
 40
0.38
  9
$DIMRND
 40
0.0
  9
$DIMDLE
 40
0.0
  9
$DIMEXE
 40
0.18
  9
$DIMTP
 40
0.0
  9
$DIMTM
 40
0.0
  9
$DIMTXT
 40
0.18
  9
$DIMCEN
 40
0.09
  9
$DIMTSZ
 40
0.0
  9
$DIMTOL
 70
     0
  9
$DIMLIM
 70
     0
  9
$DIMTIH
 70
     1
  9
$DIMTOH
 70
     1
  9
$DIMSE1
 70
     0
  9
$DIMSE2
 70
     0
  9
$DIMTAD
 70
     0
  9
$DIMZIN
 70
     0
  9
$DIMBLK
  1

  9
$DIMASO
 70
     1
  9
$DIMSHO
 70
     1
  9
$DIMPOST
  1

  9
$DIMAPOST
  1

  9
$DIMALT
 70
     0
  9
$DIMALTD
 70
     2
  9
$DIMALTF
 40
25.4
  9
$DIMLFAC
 40
1.0
  9
$DIMTOFL
 70
     0
  9
$DIMTVP
 40
0.0
  9
$DIMTIX
 70
     0
  9
$DIMSOXD
 70
     0
  9
$DIMSAH
 70
     0
  9
$DIMBLK1
  1

  9
$DIMBLK2
  1

  9
$DIMSTYLE
  2
Standard
  9
$DIMCLRD
 70
     0
  9
$DIMCLRE
 70
     0
  9
$DIMCLRT
 70
     0
  9
$DIMTFAC
 40
1.0
  9
$DIMGAP
 40
0.09
  9
$DIMJUST
 70
     0
  9
$DIMSD1
 70
     0
  9
$DIMSD2
 70
     0
  9
$DIMTOLJ
 70
     1
  9
$DIMTZIN
 70
     0
  9
$DIMALTZ
 70
     0
  9
$DIMALTTZ
 70
     0
  9
$DIMUPT
 70
     0
  9
$DIMDEC
 70
     4
  9
$DIMTDEC
 70
     4
  9
$DIMALTU
 70
     2
  9
$DIMALTTD
 70
     2
  9
$DIMTXSTY
  7
Standard
  9
$DIMAUNIT
 70
     0
  9
$DIMADEC
 70
     0
  9
$DIMALTRND
 40
0.0
  9
$DIMAZIN
 70
     0
  9
$DIMDSEP
 70
    46
  9
$DIMATFIT
 70
     3
  9
$DIMFRAC
 70
     0
  9
$DIMLDRBLK
  1

  9
$DIMLUNIT
 70
     2
  9
$DIMLWD
 70
    -2
  9
$DIMLWE
 70
    -2
  9
$DIMTMOVE
 70
     2
  9
$DIMFXL
 40
1.0
  9
$DIMFXLON
 70
     0
  9
$DIMJOGANG
 40
0.7853981633974483
  9
$DIMTFILL
 70
     0
  9
$DIMTFILLCLR
 70
     0
  9
$DIMARCSYM
 70
     0
  9
$DIMLTYPE
  6

  9
$DIMLTEX1
  6

  9
$DIMLTEX2
  6

  9
$LUNITS
 70
     2
  9
$LUPREC
 70
     3
  9
$SKETCHINC
 40
0.1
  9
$FILLETRAD
 40
0.5
  9
$AUNITS
 70
     0
  9
$AUPREC
 70
     0
  9
$MENU
  1
.
  9
$ELEVATION
 40
0.0
  9
$PELEVATION
 40
0.0
  9
$THICKNESS
 40
0.0
  9
$LIMCHECK
 70
     0
  9
$CHAMFERA
 40
0.5
  9
$CHAMFERB
 40
0.5
  9
$CHAMFERC
 40
1.0
  9
$CHAMFERD
 40
0.0
  9
$SKPOLY
 70
     0
  9
$TDCREATE
 40
2456947.644980266
  9
$TDUCREATE
 40
2456947.603313600
  9
$TDUPDATE
 40
2457350.532026968
  9
$TDUUPDATE
 40
2457350.490360301
  9
$TDINDWG
 40
0.0007779398
  9
$TDUSRTIMER
 40
0.0007779398
  9
$USRTIMER
 70
     1
  9
$ANGBASE
 50
0.0
  9
$ANGDIR
 70
     0
  9
$PDMODE
 70
     0
  9
$PDSIZE
 40
0.0
  9
$PLINEWID
 40
0.0
  9
$SPLFRAME
 70
     0
  9
$SPLINETYPE
 70
     6
  9
$SPLINESEGS
 70
     8
  9
$HANDSEED
  5
30A
  9
$SURFTAB1
 70
     6
  9
$SURFTAB2
 70
     6
  9
$SURFTYPE
 70
     6
  9
$SURFU
 70
     6
  9
$SURFV
 70
     6
  9
$UCSBASE
  2

  9
$UCSNAME
  2

  9
$UCSORG
 10
0.0
 20
0.0
 30
0.0
  9
$UCSXDIR
 10
1.0
 20
0.0
 30
0.0
  9
$UCSYDIR
 10
0.0
 20
1.0
 30
0.0
  9
$UCSORTHOREF
  2

  9
$UCSORTHOVIEW
 70
     0
  9
$UCSORGTOP
 10
0.0
 20
0.0
 30
0.0
  9
$UCSORGBOTTOM
 10
0.0
 20
0.0
 30
0.0
  9
$UCSORGLEFT
 10
0.0
 20
0.0
 30
0.0
  9
$UCSORGRIGHT
 10
0.0
 20
0.0
 30
0.0
  9
$UCSORGFRONT
 10
0.0
 20
0.0
 30
0.0
  9
$UCSORGBACK
 10
0.0
 20
0.0
 30
0.0
  9
$PUCSBASE
  2

  9
$PUCSNAME
  2

  9
$PUCSORG
 10
0.0
 20
0.0
 30
0.0
  9
$PUCSXDIR
 10
1.0
 20
0.0
 30
0.0
  9
$PUCSYDIR
 10
0.0
 20
1.0
 30
0.0
  9
$PUCSORTHOREF
  2

  9
$PUCSORTHOVIEW
 70
     0
  9
$PUCSORGTOP
 10
0.0
 20
0.0
 30
0.0
  9
$PUCSORGBOTTOM
 10
0.0
 20
0.0
 30
0.0
  9
$PUCSORGLEFT
 10
0.0
 20
0.0
 30
0.0
  9
$PUCSORGRIGHT
 10
0.0
 20
0.0
 30
0.0
  9
$PUCSORGFRONT
 10
0.0
 20
0.0
 30
0.0
  9
$PUCSORGBACK
 10
0.0
 20
0.0
 30
0.0
  9
$USERI1
 70
     0
  9
$USERI2
 70
     0
  9
$USERI3
 70
     0
  9
$USERI4
 70
     0
  9
$USERI5
 70
     0
  9
$USERR1
 40
0.0
  9
$USERR2
 40
0.0
  9
$USERR3
 40
0.0
  9
$USERR4
 40
0.0
  9
$USERR5
 40
0.0
  9
$WORLDVIEW
 70
     1
  9
$SHADEDGE
 70
     3
  9
$SHADEDIF
 70
    70
  9
$TILEMODE
 70
     1
  9
$MAXACTVP
 70
    64
  9
$PINSBASE
 10
0.0
 20
0.0
 30
0.0
  9
$PLIMCHECK
 70
     0
  9
$PEXTMIN
 10
1.000000000000000E+20
 20
1.000000000000000E+20
 30
1.000000000000000E+20
  9
$PEXTMAX
 10
-1.000000000000000E+20
 20
-1.000000000000000E+20
 30
-1.000000000000000E+20
  9
$PLIMMIN
 10
0.0
 20
0.0
  9
$PLIMMAX
 10
12.0
 20
9.0
  9
$UNITMODE
 70
     0
  9
$VISRETAIN
 70
     1
  9
$PLINEGEN
 70
     0
  9
$PSLTSCALE
 70
     1
  9
$TREEDEPTH
 70
  3020
  9
$CMLSTYLE
  2
Standard
  9
$CMLJUST
 70
     0
  9
$CMLSCALE
 40
1.0
  9
$PROXYGRAPHICS
 70
     1
  9
$MEASUREMENT
 70
     0
  9
$CELWEIGHT
370
    -1
  9
$ENDCAPS
280
     0
  9
$JOINSTYLE
280
     0
  9
$LWDISPLAY
290
     0
  9
$INSUNITS
 70
     4
  9
$HYPERLINKBASE
  1

  9
$STYLESHEET
  1

  9
$XEDIT
290
     1
  9
$CEPSNTYPE
380
     0
  9
$PSTYLEMODE
290
     1
  9
$FINGERPRINTGUID
  2
{6D4E6F73-EF57-4AC4-931C-907C368890F6}
  9
$VERSIONGUID
  2
{236DE4AD-F6C2-402E-9BB5-348D94174E03}
  9
$EXTNAMES
290
     1
  9
$PSVPSCALE
 40
0.0
  9
$OLESTARTUP
290
     0
  9
$SORTENTS
280
   127
  9
$INDEXCTL
280
     0
  9
$HIDETEXT
280
     1
  9
$XCLIPFRAME
290
     0
  9
$HALOGAP
280
     0
  9
$OBSCOLOR
 70
   257
  9
$OBSLTYPE
280
     0
  9
$INTERSECTIONDISPLAY
280
     0
  9
$INTERSECTIONCOLOR
 70
   257
  9
$DIMASSOC
280
     2
  9
$PROJECTNAME
  1

  9
$CAMERADISPLAY
290
     0
  9
$LENSLENGTH
 40
50.0
  9
$CAMERAHEIGHT
 40
0.0
  9
$STEPSPERSEC
 40
2.0
  9
$STEPSIZE
 40
6.0
  9
$3DDWFPREC
 40
2.0
  9
$PSOLWIDTH
 40
0.25
  9
$PSOLHEIGHT
 40
4.0
  9
$LOFTANG1
 40
1.570796326794896
  9
$LOFTANG2
 40
1.570796326794896
  9
$LOFTMAG1
 40
0.0
  9
$LOFTMAG2
 40
0.0
  9
$LOFTPARAM
 70
     7
  9
$LOFTNORMALS
280
     1
  9
$LATITUDE
 40
37.795
  9
$LONGITUDE
 40
-122.394
  9
$NORTHDIRECTION
 40
0.0
  9
$TIMEZONE
 70
 -8000
  9
$LIGHTGLYPHDISPLAY
280
     1
  9
$TILEMODELIGHTSYNCH
280
     1
  9
$CMATERIAL
347
296
  9
$SOLIDHIST
280
     1
  9
$SHOWHIST
280
     1
  9
$DWFFRAME
280
     2
  9
$DGNFRAME
280
     0
  9
$REALWORLDSCALE
290
     1
  9
$INTERFERECOLOR
 62
     1
  9
$INTERFEREOBJVS
345
33
  9
$INTERFEREVPVS
346
30
  9
$CSHADOW
280
     0
  9
$SHADOWPLANELOCATION
 40
0.0
  0
ENDSEC
  0
SECTION
  2
CLASSES
  0
CLASS
  1
ACDBDICTIONARYWDFLT
  2
AcDbDictionaryWithDefault
  3
ObjectDBX Classes
 90
        0
 91
        1
280
     0
281
     0
  0
CLASS
  1
VISUALSTYLE
  2
AcDbVisualStyle
  3
ObjectDBX Classes
 90
     4095
 91
       19
280
     0
281
     0
  0
CLASS
  1
MATERIAL
  2
AcDbMaterial
  3
ObjectDBX Classes
 90
     1153
 91
        3
280
     0
281
     0
  0
CLASS
  1
TABLESTYLE
  2
AcDbTableStyle
  3
ObjectDBX Classes
 90
     4095
 91
        1
280
     0
281
     0
  0
CLASS
  1
SCALE
  2
AcDbScale
  3
ObjectDBX Classes
 90
     1153
 91
       33
280
     0
281
     0
  0
CLASS
  1
MLEADERSTYLE
  2
AcDbMLeaderStyle
  3
ACDB_MLEADERSTYLE_CLASS
 90
     4095
 91
        1
280
     0
281
     0
  0
CLASS
  1
DICTIONARYVAR
  2
AcDbDictionaryVar
  3
ObjectDBX Classes
 90
        0
 91
        7
280
     0
281
     0
  0
CLASS
  1
CELLSTYLEMAP
  2
AcDbCellStyleMap
  3
ObjectDBX Classes
 90
     1152
 91
        1
280
     0
281
     0
  0
ENDSEC
  0
SECTION
  2
TABLES
  0
TABLE
  2
VPORT
  5
8
330
0
100
AcDbSymbolTable
 70
     1
  0
VPORT
  5
29
330
8
100
AcDbSymbolTableRecord
100
AcDbViewportTableRecord
  2
*Active
 70
     0
 10
0.0
 20
0.0
 11
1.0
 21
1.0
 12
-416.1231839454012
 22
235.3277884106
 13
0.0
 23
0.0
 14
0.5
 24
0.5
 15
0.5
 25
0.5
 16
0.0
 26
0.0
 36
1.0
 17
0.0
 27
0.0
 37
0.0
 40
1229.655696715092
 41
2.461439588688945
 42
50.0
 43
0.0
 44
0.0
 50
0.0
 51
0.0
 71
     0
 72
   100
 73
     1
 74
     3
 75
     0
 76
     0
 77
     0
 78
     0
281
     0
 65
     1
110
0.0
120
0.0
130
0.0
111
1.0
121
0.0
131
0.0
112
0.0
122
1.0
132
0.0
 79
     0
146
0.0
348
2F
 60
     3
 61
     5
292
     1
282
     1
141
0.0
142
0.0
 63
   250
421
  3355443
  0
ENDTAB
  0
TABLE
  2
LTYPE
  5
5
330
0
100
AcDbSymbolTable
 70
     1
  0
LTYPE
  5
14
330
5
100
AcDbSymbolTableRecord
100
AcDbLinetypeTableRecord
  2
ByBlock
 70
     0
  3

 72
    65
 73
     0
 40
0.0
  0
LTYPE
  5
15
330
5
100
AcDbSymbolTableRecord
100
AcDbLinetypeTableRecord
  2
ByLayer
 70
     0
  3

 72
    65
 73
     0
 40
0.0
  0
LTYPE
  5
16
330
5
100
AcDbSymbolTableRecord
100
AcDbLinetypeTableRecord
  2
Continuous
 70
     0
  3
Solid line
 72
    65
 73
     0
 40
0.0
  0
ENDTAB
  0
TABLE
  2
LAYER
  5
2
330
0
100
AcDbSymbolTable
 70
     4
  0
LAYER
  5
10
330
2
100
AcDbSymbolTableRecord
100
AcDbLayerTableRecord
  2
0
 70
     0
 62
     7
  6
Continuous
370
    -3
390
F
347
2A6
  0
LAYER
  5
3B
330
2
100
AcDbSymbolTableRecord
100
AcDbLayerTableRecord
  2
Linee visibili 2D
 70
     0
 62
     7
  6
Continuous
370
    -3
390
F
347
2A6
  0
LAYER
  5
4C
330
2
100
AcDbSymbolTableRecord
100
AcDbLayerTableRecord
  2
Linee visibili 2D - Tangent
 70
     0
 62
     7
  6
Continuous
370
    -3
390
F
347
2A6
  0
LAYER
  5
16B
330
2
100
AcDbSymbolTableRecord
100
AcDbLayerTableRecord
  2
Predefinito
 70
     0
 62
     7
  6
Continuous
370
    -3
390
F
347
2A6
  0
ENDTAB
  0
TABLE
  2
STYLE
  5
3
330
0
100
AcDbSymbolTable
 70
     1
  0
STYLE
  5
11
330
3
100
AcDbSymbolTableRecord
100
AcDbTextStyleTableRecord
  2
Standard
 70
     0
 40
0.0
 41
1.0
 50
0.0
 71
     0
 42
0.2
  3
txt
  4

  0
ENDTAB
  0
TABLE
  2
VIEW
  5
6
330
0
100
AcDbSymbolTable
 70
     0
  0
ENDTAB
  0
TABLE
  2
UCS
  5
7
330
0
100
AcDbSymbolTable
 70
     0
  0
ENDTAB
  0
TABLE
  2
APPID
  5
9
330
0
100
AcDbSymbolTable
 70
     2
  0
APPID
  5
12
330
9
100
AcDbSymbolTableRecord
100
AcDbRegAppTableRecord
  2
ACAD
 70
     0
  0
APPID
  5
309
330
9
100
AcDbSymbolTableRecord
100
AcDbRegAppTableRecord
  2
ACAD_MLEADERVER
 70
     0
  0
ENDTAB
  0
TABLE
  2
DIMSTYLE
  5
A
330
0
100
AcDbSymbolTable
 70
     1
100
AcDbDimStyleTable
 71
     0
  0
DIMSTYLE
105
27
330
A
100
AcDbSymbolTableRecord
100
AcDbDimStyleTableRecord
  2
Standard
 70
     0
340
11
  0
ENDTAB
  0
TABLE
  2
BLOCK_RECORD
  5
1
330
0
100
AcDbSymbolTable
 70
     1
  0
BLOCK_RECORD
  5
1F
330
1
100
AcDbSymbolTableRecord
100
AcDbBlockTableRecord
  2
*Model_Space
340
22
 70
     0
280
     1
281
     0
  0
BLOCK_RECORD
  5
1B
330
1
100
AcDbSymbolTableRecord
100
AcDbBlockTableRecord
  2
*Paper_Space
340
1E
 70
     0
280
     1
281
     0
  0
BLOCK_RECORD
  5
23
330
1
100
AcDbSymbolTableRecord
100
AcDbBlockTableRecord
  2
*Paper_Space0
340
26
 70
     0
280
     1
281
     0
  0
ENDTAB
  0
ENDSEC
  0
SECTION
  2
BLOCKS
  0
BLOCK
  5
20
330
1F
100
AcDbEntity
  8
0
100
AcDbBlockBegin
  2
*Model_Space
 70
     0
 10
0.0
 20
0.0
 30
0.0
  3
*Model_Space
  1

  0
ENDBLK
  5
21
330
1F
100
AcDbEntity
  8
0
100
AcDbBlockEnd
  0
BLOCK
  5
1C
330
1B
100
AcDbEntity
 67
     1
  8
0
100
AcDbBlockBegin
  2
*Paper_Space
 70
     0
 10
0.0
 20
0.0
 30
0.0
  3
*Paper_Space
  1

  0
ENDBLK
  5
1D
330
1B
100
AcDbEntity
 67
     1
  8
0
100
AcDbBlockEnd
  0
BLOCK
  5
24
330
23
100
AcDbEntity
 67
     1
  8
0
100
AcDbBlockBegin
  2
*Paper_Space0
 70
     0
 10
0.0
 20
0.0
 30
0.0
  3
*Paper_Space0
  1

  0
ENDBLK
  5
25
330
23
100
AcDbEntity
 67
     1
  8
0
100
AcDbBlockEnd
  0
ENDSEC
  0
SECTION
  2
ENTITIES
  0
SPLINE
  5
3C
330
1F
100
AcDbEntity
  8
Linee visibili 2D
100
AcDbSpline
210
0.0
220
0.0
230
1.0
 70
    12
 71
     2
 72
     6
 73
     3
 74
     0
 42
0.0000000001
 43
0.0000000001
 40
0.0
 40
0.0
 40
0.0
 40
7.779422664264838
 40
7.779422664264838
 40
7.779422664264838
 10
230.0
 20
35.0
 30
0.0
 41
1.0
 10
229.9999999999998
 20
30.07400854104521
 30
0.0
 41
0.7123591935648772
 10
234.9254437934349
 20
30.00055589369572
 30
0.0
 41
1.0
  0
SPLINE
  5
3D
330
1F
100
AcDbEntity
  8
Linee visibili 2D
100
AcDbSpline
210
0.0
220
0.0
230
1.0
 70
    12
 71
     2
 72
     6
 73
     3
 74
     0
 42
0.0000000001
 43
0.0000000001
 40
0.0
 40
0.0
 40
0.0
 40
1.233525434581694
 40
1.233525434581694
 40
1.233525434581694
 10
229.9364077743569
 20
47.45103068379102
 30
0.0
 41
1.0
 10
229.8376082636491
 20
48.062941711038
 30
0.0
 41
0.9925796606455936
 10
229.5940225943245
 20
48.63290878928228
 30
0.0
 41
1.0
  0
SPLINE
  5
3E
330
1F
100
AcDbEntity
  8
Linee visibili 2D
100
AcDbSpline
210
0.0
220
0.0
230
1.0
 70
    12
 71
     2
 72
     6
 73
     3
 74
     0
 42
0.0000000001
 43
0.0000000001
 40
0.0
 40
0.0
 40
0.0
 40
1.233521510979735
 40
1.233521510979735
 40
1.233521510979735
 10
228.7499834646642
 20
49.96742568660785
 30
0.0
 41
1.0
 10
228.3394005543391
 20
50.4317700925943
 30
0.0
 41
0.9925795656133546
 10
227.8288715200918
 20
50.7832728078224
 30
0.0
 41
1.0
  0
SPLINE
  5
3F
330
1F
100
AcDbEntity
  8
Linee visibili 2D
100
AcDbSpline
210
0.0
220
0.0
230
1.0
 70
    12
 71
     2
 72
     6
 73
     3
 74
     0
 42
0.0000000001
 43
0.0000000001
 40
0.0
 40
0.0
 40
0.0
 40
1.974987876290343
 40
1.974987876290343
 40
1.974987876290343
 10
289.9458955304333
 20
373.5196317584867
 30
0.0
 41
1.0
 10
289.7991040632726
 20
372.5299216717478
 30
0.0
 41
0.9805604905810183
 10
289.2827701411118
 20
371.6729076278427
 30
0.0
 41
1.0
  0
SPLINE
  5
40
330
1F
100
AcDbEntity
  8
Linee visibili 2D
100
AcDbSpline
210
0.0
220
0.0
230
1.0
 70
    12
 71
     2
 72
     6
 73
     3
 74
     0
 42
0.0000000001
 43
0.0000000001
 40
0.0
 40
0.0
 40
0.0
 40
1.974986251743954
 40
1.974986251743954
 40
1.974986251743954
 10
288.4679266429291
 20
370.6513212259965
 30
0.0
 41
1.0
 10
287.7471662593846
 20
369.9573639034686
 30
0.0
 41
0.9805603793229192
 10
286.8148671496708
 20
369.594196358107
 30
0.0
 41
1.0
  0
SPLINE
  5
41
330
1F
100
AcDbEntity
  8
Linee visibili 2D
100
AcDbSpline
210
0.0
220
0.0
230
1.0
 70
    12
 71
     2
 72
     6
 73
     3
 74
     0
 42
0.0000000001
 43
0.0000000001
 40
0.0
 40
0.0
 40
0.0
 40
0.8414672954036385
 40
0.8414672954036385
 40
0.8414672954036385
 10
289.6810602937953
 20
372.5035398577704
 30
0.0
 41
1.0
 10
289.8285869411552
 20
372.8985906186405
 30
0.0
 41
0.9965732289936312
 10
289.9089654629413
 20
373.3125574151118
 30
0.0
 41
1.0
  0
SPLINE
  5
42
330
1F
100
AcDbEntity
  8
Linee visibili 2D
100
AcDbSpline
210
0.0
220
0.0
230
1.0
 70
    12
 71
     2
 72
     6
 73
     3
 74
     0
 42
0.0000000001
 43
0.0000000001
 40
0.0
 40
0.0
 40
0.0
 40
1.983294031994864
 40
1.983294031994864
 40
1.983294031994864
 10
210.2026842862217
 20
74.79486851540514
 30
0.0
 41
1.0
 10
210.0859179355113
 20
75.78000989548623
 30
0.0
 41
0.9994100443384754
 10
210.0370560393812
 20
76.77084309765155
 30
0.0
 41
1.0
  0
SPLINE
  5
43
330
1F
100
AcDbEntity
  8
Linee visibili 2D
100
AcDbSpline
210
0.0
220
0.0
230
1.0
 70
    12
 71
     2
 72
     6
 73
     3
 74
     0
 42
0.0000000001
 43
0.0000000001
 40
0.0
 40
0.0
 40
0.0
 40
1.913242724343638
 40
1.913242724343638
 40
1.913242724343638
 10
269.4257677834737
 20
358.9560037179428
 30
0.0
 41
1.0
 10
270.0264974191536
 20
359.7008927476967
 30
0.0
 41
0.9994993030385124
 10
270.6731384605223
 20
360.4062941408406
 30
0.0
 41
1.0
  0
SPLINE
  5
44
330
1F
100
AcDbEntity
  8
Linee visibili 2D
100
AcDbSpline
210
0.0
220
0.0
230
1.0
 70
    12
 71
     2
 72
     6
 73
     3
 74
     0
 42
0.0000000001
 43
0.0000000001
 40
0.0
 40
0.0
 40
0.0
 40
2.104765167137
 40
2.104765167137
 40
2.104765167137
 10
275.0226807837353
 20
364.3069448051297
 30
0.0
 41
1.0
 10
275.8713365400355
 20
364.9299917719964
 30
0.0
 41
0.9993943782492548
 10
276.7612719464346
 20
365.4925031834898
 30
0.0
 41
1.0
  0
SPLINE
  5
45
330
1F
100
AcDbEntity
  8
Linee visibili 2D
100
AcDbSpline
210
0.0
220
0.0
230
1.0
 70
    12
 71
     3
 72
     8
 73
     4
 74
     0
 42
0.0000000001
 43
0.0000000001
 40
0.485665759000561
 40
0.485665759000561
 40
0.485665759000561
 40
0.485665759000561
 40
0.6340191570762573
 40
0.6340191570762573
 40
0.6340191570762573
 40
0.6340191570762573
 10
209.6620366929744
 20
277.598335680791
 30
0.0
 41
1.0
 10
207.8353919223375
 20
276.4238942995983
 30
0.0
 41
1.0
 10
205.8160813487898
 20
275.36685140193
 30
0.0
 41
1.0
 10
203.6439096384788
 20
274.4139312505156
 30
0.0
 41
1.0
  0
SPLINE
  5
46
330
1F
100
AcDbEntity
  8
Linee visibili 2D
100
AcDbSpline
210
0.0
220
0.0
230
1.0
 70
    12
 71
     2
 72
     6
 73
     3
 74
     0
 42
0.0000000001
 43
0.0000000001
 40
0.0
 40
0.0
 40
0.0
 40
1.974984524392476
 40
1.974984524392476
 40
1.974984524392476
 10
-46.81486262356611
 20
369.594198952881
 30
0.0
 41
1.0
 10
-47.74716157417184
 20
369.9573644196702
 30
0.0
 41
0.9805604197403116
 10
-48.46792289659288
 20
370.6513194655274
 30
0.0
 41
1.0
  0
SPLINE
  5
47
330
1F
100
AcDbEntity
  8
Linee visibili 2D
100
AcDbSpline
210
0.0
220
0.0
230
1.0
 70
    12
 71
     2
 72
     6
 73
     3
 74
     0
 42
0.0000000001
 43
0.0000000001
 40
0.0
 40
0.0
 40
0.0
 40
0.8414638600650146
 40
0.8414638600650146
 40
0.8414638600650146
 10
-49.90896701094629
 20
373.3125520773738
 30
0.0
 41
1.0
 10
-49.82858957674594
 20
372.8985868339447
 30
0.0
 41
0.9965732653438291
 10
-49.68106460534865
 20
372.5035372958989
 30
0.0
 41
1.0
  0
SPLINE
  5
48
330
1F
100
AcDbEntity
  8
Linee visibili 2D
100
AcDbSpline
210
0.0
220
0.0
230
1.0
 70
    12
 71
     3
 72
     8
 73
     4
 74
     0
 42
0.0000000001
 43
0.0000000001
 40
1.023440713957028
 40
1.023440713957028
 40
1.023440713957028
 40
1.023440713957028
 40
1.421932869387865
 40
1.421932869387865
 40
1.421932869387865
 40
1.421932869387865
 10
12.8423956023862
 20
69.62848324181391
 30
0.0
 41
1.0
 10
12.76280394996866
 20
65.57409993412284
 30
0.0
 41
1.0
 10
12.75363661207166
 20
61.67390506992821
 30
0.0
 41
1.0
 10
12.75276529114012
 20
58.48253872916962
 30
0.0
 41
1.0
  0
SPLINE
  5
49
330
1F
100
AcDbEntity
  8
Linee visibili 2D
100
AcDbSpline
210
0.0
220
0.0
230
1.0
 70
    12
 71
     2
 72
     6
 73
     3
 74
     0
 42
0.0000000001
 43
0.0000000001
 40
0.0
 40
0.0
 40
0.0
 40
11.33489896444198
 40
11.33489896444198
 40
11.33489896444198
 10
-44.51113733587636
 20
368.9666296323246
 30
0.0
 41
1.0
 10
-38.99759090168382
 20
367.385262549843
 30
0.0
 41
0.982209299580572
 10
-34.45627553498912
 20
363.8814973077385
 30
0.0
 41
1.0
  0
SPLINE
  5
4A
330
1F
100
AcDbEntity
  8
Linee visibili 2D
100
AcDbSpline
210
0.0
220
0.0
230
1.0
 70
    12
 71
     2
 72
     6
 73
     3
 74
     0
 42
0.0000000001
 43
0.0000000001
 40
0.0
 40
0.0
 40
0.0
 40
11.33485503159591
 40
11.33485503159591
 40
11.33485503159591
 10
-31.28611224586257
 20
361.0560145393702
 30
0.0
 41
1.0
 10
-27.28501937884075
 20
356.9461592136585
 30
0.0
 41
0.9822094370796076
 10
-25.08222894072265
 20
351.6501825129403
 30
0.0
 41
1.0
  0
SPLINE
  5
4B
330
1F
100
AcDbEntity
  8
Linee visibili 2D
100
AcDbSpline
210
0.0
220
0.0
230
1.0
 70
    12
 71
     2
 72
     6
 73
     3
 74
     0
 42
0.0000000001
 43
0.0000000001
 40
0.0
 40
0.0
 40
0.0
 40
0.6377680894127498
 40
0.6377680894127498
 40
0.6377680894127498
 10
16.494577748251
 20
288.4397014633305
 30
0.0
 41
1.0
 10
16.71243246663275
 20
288.2068299864982
 30
0.0
 41
0.9999795770311528
 10
16.92729286250483
 20
287.9711929492373
 30
0.0
 41
1.0
  0
SPLINE
  5
4D
330
1F
100
AcDbEntity
  8
Linee visibili 2D - Tangent
100
AcDbSpline
210
0.0
220
0.0
230
1.0
 70
     8
 71
     3
 72
    19
 73
    15
 74
     0
 42
0.0000000001
 43
0.0000000001
 40
0.0
 40
0.0
 40
0.0
 40
0.0
 40
12.87006727889806
 40
27.3691778087159
 40
60.78336601148421
 40
72.84366091520971
 40
80.5344992874394
 40
82.99802633035815
 40
84.71670692550414
 40
85.29372339811892
 40
85.71569336611743
 40
85.98348844866988
 40
86.04890351047815
 40
86.08517762394319
 40
86.08517762394319
 40
86.08517762394319
 40
86.08517762394319
 10
200.0212644508422
 20
369.3829433132155
 30
0.0
 10
204.3112640238955
 20
369.3968463598476
 30
0.0
 10
213.4342914982394
 20
369.4216278661345
 30
0.0
 10
233.6953854872509
 20
369.4560686303755
 30
0.0
 10
253.6865846627888
 20
369.468551876718
 30
0.0
 10
271.4083576746502
 20
369.4647924666647
 30
0.0
 10
278.8132408456593
 20
369.454487635355
 30
0.0
 10
282.7708973540766
 20
369.4394656955169
 30
0.0
 10
284.3572654172478
 20
369.4276471032428
 30
0.0
 10
285.2630852631394
 20
369.415992443562
 30
0.0
 10
285.6852542492884
 20
369.4073147926479
 30
0.0
 10
285.9368819600822
 20
369.3992507162845
 30
0.0
 10
286.0597554392843
 20
369.3910953412997
 30
0.0
 10
286.0935495401695
 20
369.3871297522358
 30
0.0
 10
286.1051567936648
 20
369.3829995906212
 30
0.0
  0
SPLINE
  5
4E
330
1F
100
AcDbEntity
  8
Linee visibili 2D - Tangent
100
AcDbSpline
210
0.0
220
0.0
230
1.0
 70
    12
 71
     2
 72
     6
 73
     3
 74
     0
 42
0.0000000001
 43
0.0000000001
 40
-6.738863209574187
 40
-6.738863209574187
 40
-6.738863209574187
 40
0.0
 40
0.0
 40
0.0
 10
286.1051567936648
 20
369.3829995906212
 30
0.0
 41
1.0
 10
289.9996133975104
 20
370.2658110537258
 30
0.0
 41
0.7813992704968743
 10
289.9999999780914
 20
374.2588192851749
 30
0.0
 41
1.0
  0
SPLINE
  5
4F
330
1F
100
AcDbEntity
  8
Linee visibili 2D - Tangent
100
AcDbSpline
210
0.0
220
0.0
230
1.0
 70
    12
 71
     3
 72
    10
 73
     6
 74
     0
 42
0.0000000001
 43
0.0000000001
 40
2.369967308811006
 40
2.369967308811006
 40
2.369967308811006
 40
2.369967308811006
 40
2.5
 40
2.5
 40
3.0
 40
3.0
 40
3.0
 40
3.0
 10
-49.39077286325482
 20
371.8645692998509
 30
0.0
 41
1.0
 10
-49.25196521128237
 20
371.6079804283238
 30
0.0
 41
1.0
 10
-49.09084273190297
 20
371.3635246023684
 30
0.0
 41
1.0
 10
-48.20913407986882
 20
370.2581060227794
 30
0.0
 41
1.0
 10
-47.20576053781473
 20
369.6278381842185
 30
0.0
 41
1.0
 10
-46.11168866308186
 20
369.378342989723
 30
0.0
 41
1.0
  0
SPLINE
  5
50
330
1F
100
AcDbEntity
  8
Linee visibili 2D - Tangent
100
AcDbSpline
210
0.0
220
0.0
230
1.0
 70
    12
 71
     2
 72
     6
 73
     3
 74
     0
 42
0.0000000001
 43
0.0000000001
 40
-0.0074047810750865
 40
-0.0074047810750865
 40
-0.0074047810750865
 40
0.0
 40
0.0
 40
0.0
 10
-46.11168866308186
 20
369.378342989723
 30
0.0
 41
1.0
 10
-46.10861782855663
 20
369.3804276211019
 30
0.0
 41
0.9999999232226286
 10
-46.10554098752368
 20
369.3825059982576
 30
0.0
 41
1.0
  0
SPLINE
  5
51
330
1F
100
AcDbEntity
  8
Linee visibili 2D - Tangent
100
AcDbSpline
210
0.0
220
0.0
230
1.0
 70
    12
 71
     2
 72
     6
 73
     3
 74
     0
 42
0.0000000001
 43
0.0000000001
 40
0.0
 40
0.0
 40
0.0
 40
30.14008411909759
 40
30.14008411909759
 40
30.14008411909759
 10
-46.10554098752368
 20
369.3825059982576
 30
0.0
 41
1.0
 10
-30.03281836123473
 20
365.7349147175277
 30
0.0
 41
0.8763628386857782
 10
-24.49677152103527
 20
350.2110940940461
 30
0.0
 41
1.0
  0
SPLINE
  5
52
330
1F
100
AcDbEntity
  8
Linee visibili 2D
100
AcDbSpline
210
0.0
220
0.0
230
1.0
 70
     8
 71
     3
 72
    12
 73
     8
 74
     0
 42
0.0000000001
 43
0.0000000001
 40
0.0
 40
0.0
 40
0.0
 40
0.0
 40
0.1741983213831339
 40
0.4237001386871951
 40
1.2055055602703
 40
2.456536063880892
 40
4.416968284859525
 40
4.416968284859525
 40
4.416968284859525
 40
4.416968284859525
 10
12.81423181103514
 20
51.3000064965513
 30
0.0
 10
12.80699939388069
 20
51.35762443075759
 30
0.0
 10
12.79522859680242
 20
51.49841246536675
 30
0.0
 10
12.77723576583821
 20
51.89988071190714
 30
0.0
 10
12.76367853882266
 20
52.66058199775944
 30
0.0
 10
12.75509893474009
 20
53.99163850462014
 30
0.0
 10
12.75365585172472
 20
55.06213485717672
 30
0.0
 10
12.75288144349042
 20
55.71560892704247
 30
0.0
  0
SPLINE
  5
53
330
1F
100
AcDbEntity
  8
Linee visibili 2D
100
AcDbSpline
210
0.0
220
0.0
230
1.0
 70
    12
 71
     2
 72
     6
 73
     3
 74
     0
 42
0.0000000001
 43
0.0000000001
 40
-0.029452132440943
 40
-0.029452132440943
 40
-0.029452132440943
 40
0.0
 40
0.0
 40
0.0
 10
12.75288144349042
 20
55.71560892704247
 30
0.0
 41
1.0
 10
12.75267829105196
 20
55.73033495703428
 30
0.0
 41
0.9999999999894491
 10
12.75287054831529
 20
55.74506098460823
 30
0.0
 41
1.0
  0
SPLINE
  5
54
330
1F
100
AcDbEntity
  8
Linee visibili 2D
100
AcDbSpline
210
0.0
220
0.0
230
1.0
 70
    12
 71
     2
 72
     6
 73
     3
 74
     0
 42
0.0000000001
 43
0.0000000001
 40
0.0
 40
0.0
 40
0.0
 40
0.1268884616621828
 40
0.1268884616621828
 40
0.1268884616621828
 10
12.75287054831521
 20
55.74506098460834
 30
0.0
 41
0.9999999999999962
 10
12.75301440171709
 20
55.80850527113547
 30
0.0
 41
0.9999999983234324
 10
12.75282953731653
 20
55.87194937645882
 30
0.0
 41
1.0
  0
SPLINE
  5
55
330
1F
100
AcDbEntity
  8
Linee visibili 2D
100
AcDbSpline
210
0.0
220
0.0
230
1.0
 70
    12
 71
     2
 72
     6
 73
     3
 74
     0
 42
0.0000000001
 43
0.0000000001
 40
-0.0268322543461371
 40
-0.0268322543461371
 40
-0.0268322543461371
 40
0.0
 40
0.0
 40
0.0
 10
12.75282953731653
 20
55.87194937645882
 30
0.0
 41
1.0
 10
12.75268610563356
 20
55.88536548755044
 30
0.0
 41
0.9999999999968723
 10
12.75282202659446
 20
55.8987815881701
 30
0.0
 41
1.0
  0
SPLINE
  5
56
330
1F
100
AcDbEntity
  8
Linee visibili 2D
100
AcDbSpline
210
0.0
220
0.0
230
1.0
 70
    12
 71
     2
 72
     6
 73
     3
 74
     0
 42
0.0000000001
 43
0.0000000001
 40
0.0
 40
0.0
 40
0.0
 40
0.1320207361492401
 40
0.1320207361492401
 40
0.1320207361492401
 10
12.75282202659443
 20
55.89878158817004
 30
0.0
 41
0.9999999999999978
 10
12.75291638134895
 20
55.96479198483319
 30
0.0
 41
0.9999999983718804
 10
12.75279043836395
 20
56.03080229224088
 30
0.0
 41
1.0
  0
SPLINE
  5
57
330
1F
100
AcDbEntity
  8
Linee visibili 2D
100
AcDbSpline
210
0.0
220
0.0
230
1.0
 70
    24
 71
     2
 72
     6
 73
     3
 74
     0
 42
0.0000000001
 43
0.0000000001
 40
-0.0239064069434737
 40
-0.0239064069434737
 40
-0.0239064069434737
 40
0.0
 40
0.0
 40
0.0
 10
12.75279043836395
 20
56.03080229224088
 30
0.0
 10
12.75278802591129
 20
56.04275549049885
 30
0.0
 10
12.75278561345863
 20
56.05470868875682
 30
0.0
  0
SPLINE
  5
58
330
1F
100
AcDbEntity
  8
Linee visibili 2D
100
AcDbSpline
210
0.0
220
0.0
230
1.0
 70
    12
 71
     2
 72
     6
 73
     3
 74
     0
 42
0.0000000001
 43
0.0000000001
 40
0.0
 40
0.0
 40
0.0
 40
0.13745218217714
 40
0.13745218217714
 40
0.13745218217714
 10
12.75278561345872
 20
56.0547086887569
 30
0.0
 41
0.9999999999999992
 10
12.75283847416459
 20
56.1234347921065
 30
0.0
 41
0.9999999984158671
 10
12.75276266119249
 20
56.19216083879428
 30
0.0
 41
1.0
  0
SPLINE
  5
59
330
1F
100
AcDbEntity
  8
Linee visibili 2D
100
AcDbSpline
210
0.0
220
0.0
230
1.0
 70
    24
 71
     2
 72
     6
 73
     3
 74
     0
 42
0.0000000001
 43
0.0000000001
 40
-0.0206812512711912
 40
-0.0206812512711912
 40
-0.0206812512711912
 40
0.0
 40
0.0
 40
0.0
 10
12.75276266119249
 20
56.19216083879428
 30
0.0
 10
12.75276126403878
 20
56.20250145586475
 30
0.0
 10
12.75275986688507
 20
56.21284207293524
 30
0.0
  0
SPLINE
  5
5A
330
1F
100
AcDbEntity
  8
Linee visibili 2D
100
AcDbSpline
210
0.0
220
0.0
230
1.0
 70
    12
 71
     2
 72
     6
 73
     3
 74
     0
 42
0.0000000001
 43
0.0000000001
 40
0.0
 40
0.0
 40
0.0
 40
0.1431762156824451
 40
0.1431762156824451
 40
0.1431762156824451
 10
12.75275986688509
 20
56.21284207293527
 30
0.0
 41
0.9999999999999998
 10
12.75278048143974
 20
56.28443018561565
 30
0.0
 41
0.9999999984563185
 10
12.75274471533862
 20
56.35601828006338
 30
0.0
 41
1.0
  0
SPLINE
  5
5B
330
1F
100
AcDbEntity
  8
Linee visibili 2D
100
AcDbSpline
210
0.0
220
0.0
230
1.0
 70
    24
 71
     2
 72
     6
 73
     3
 74
     0
 42
0.0000000001
 43
0.0000000001
 40
-0.0171632464939441
 40
-0.0171632464939441
 40
-0.0171632464939441
 40
0.0
 40
0.0
 40
0.0
 10
12.75274471533862
 20
56.35601828006338
 30
0.0
 10
12.75274403508251
 20
56.3645999031545
 30
0.0
 10
12.75274335482641
 20
56.37318152624562
 30
0.0
  0
SPLINE
  5
5C
330
1F
100
AcDbEntity
  8
Linee visibili 2D
100
AcDbSpline
210
0.0
220
0.0
230
1.0
 70
    12
 71
     2
 72
     6
 73
     3
 74
     0
 42
0.0000000001
 43
0.0000000001
 40
0.0
 40
0.0
 40
0.0
 40
0.1491862519397104
 40
0.1491862519397104
 40
0.1491862519397104
 10
12.75274335482641
 20
56.37318152624562
 30
0.0
 41
1.0
 10
12.75274219975692
 20
56.4477746549594
 30
0.0
 41
0.9999999984940084
 10
12.75273510567945
 20
56.52236778074915
 30
0.0
 41
1.0
  0
SPLINE
  5
5D
330
1F
100
AcDbEntity
  8
Linee visibili 2D
100
AcDbSpline
210
0.0
220
0.0
230
1.0
 70
    24
 71
     2
 72
     6
 73
     3
 74
     0
 42
0.0000000001
 43
0.0000000001
 40
-0.0133590473273477
 40
-0.0133590473273477
 40
-0.0133590473273477
 40
0.0
 40
0.0
 40
0.0
 10
12.75273510567945
 20
56.52236778074915
 30
0.0
 10
12.75273487982031
 20
56.52904730692114
 30
0.0
 10
12.75273465396117
 20
56.53572683309312
 30
0.0
  0
SPLINE
  5
5E
330
1F
100
AcDbEntity
  8
Linee visibili 2D
100
AcDbSpline
210
0.0
220
0.0
230
1.0
 70
    12
 71
     2
 72
     6
 73
     3
 74
     0
 42
0.0000000001
 43
0.0000000001
 40
0.0
 40
0.0
 40
0.0
 40
0.1554757056471278
 40
0.1554757056471278
 40
0.1554757056471278
 10
12.75273465396117
 20
56.53572683309312
 30
0.0
 41
1.0
 10
12.75272342136998
 20
56.61346469029978
 30
0.0
 41
0.9999999985295815
 10
12.75273233279836
 20
56.69120254320114
 30
0.0
 41
1.0
  0
SPLINE
  5
5F
330
1F
100
AcDbEntity
  8
Linee visibili 2D
100
AcDbSpline
210
0.0
220
0.0
230
1.0
 70
    24
 71
     2
 72
     6
 73
     3
 74
     0
 42
0.0000000001
 43
0.0000000001
 40
-0.0092752338548542
 40
-0.0092752338548542
 40
-0.0092752338548542
 40
0.0
 40
0.0
 40
0.0
 10
12.75273233279836
 20
56.69120254320114
 30
0.0
 10
12.75273234074371
 20
56.69584016085514
 30
0.0
 10
12.75273234868905
 20
56.70047777850914
 30
0.0
  0
SPLINE
  5
60
330
1F
100
AcDbEntity
  8
Linee visibili 2D
100
AcDbSpline
210
0.0
220
0.0
230
1.0
 70
     8
 71
     3
 72
    11
 73
     7
 74
     0
 42
0.0000000001
 43
0.0000000001
 40
0.0
 40
0.0
 40
0.0
 40
0.0
 40
1.770861910764958
 40
3.471872690237065
 40
6.392149440921474
 40
11.26885268046709
 40
11.26885268046709
 40
11.26885268046709
 40
11.26885268046709
 10
12.75273234868905
 20
56.70047777850914
 30
0.0
 10
12.75273719299662
 20
57.29076532680824
 30
0.0
 10
12.75339240400513
 20
58.4480554640836
 30
0.0
 10
12.75688523451231
 20
60.57877067319964
 30
0.0
 10
12.76801068836176
 20
63.74474861204703
 30
0.0
 10
12.79044869787708
 20
66.34366774381442
 30
0.0
 10
12.81438041434694
 20
67.9690635531624
 30
0.0
  0
SPLINE
  5
61
330
1F
100
AcDbEntity
  8
Linee visibili 2D
100
AcDbSpline
210
0.0
220
0.0
230
1.0
 70
    12
 71
     3
 72
     8
 73
     4
 74
     0
 42
0.0000000001
 43
0.0000000001
 40
1.583940059345335
 40
1.583940059345335
 40
1.583940059345335
 40
1.583940059345335
 40
2.0
 40
2.0
 40
2.0
 40
2.0
 10
12.75279784806798
 20
55.00936646828883
 30
0.0
 41
1.0
 10
12.75395176575057
 20
52.46921522943829
 30
0.0
 41
1.0
 10
12.76512721732092
 20
51.13542698970969
 30
0.0
 41
1.0
 10
12.85718926976529
 20
51.17906562395546
 30
0.0
 41
1.0
  0
SPLINE
  5
62
330
1F
100
AcDbEntity
  8
Linee visibili 2D
100
AcDbSpline
210
0.0
220
0.0
230
1.0
 70
    12
 71
     2
 72
     6
 73
     3
 74
     0
 42
0.0000000001
 43
0.0000000001
 40
0.0
 40
0.0
 40
0.0
 40
33.83650304577981
 40
33.83650304577981
 40
33.83650304577981
 10
12.85718926976529
 20
51.17906562395546
 30
0.0
 41
1.0
 10
29.99999999983904
 20
59.31064409117844
 30
0.0
 41
0.8451547485897277
 10
30.00000000000023
 20
78.28427124711561
 30
0.0
 41
1.0
  0
SPLINE
  5
63
330
1F
100
AcDbEntity
  8
Linee visibili 2D
100
AcDbSpline
210
0.0
220
0.0
230
1.0
 70
    24
 71
     2
 72
     6
 73
     3
 74
     0
 42
0.0000000001
 43
0.0000000001
 40
0.0
 40
0.0
 40
0.0
 40
175.9770546619286
 40
175.9770546619286
 40
175.9770546619286
 10
30.00000000000023
 20
78.28427124711561
 30
0.0
 10
30.00000000000011
 20
166.2727985780799
 30
0.0
 10
30.0
 20
254.2613259090442
 30
0.0
  0
SPLINE
  5
64
330
1F
100
AcDbEntity
  8
Linee visibili 2D
100
AcDbSpline
210
0.0
220
0.0
230
1.0
 70
    24
 71
     2
 72
     6
 73
     3
 74
     0
 42
0.0000000001
 43
0.0000000001
 40
0.0
 40
0.0
 40
0.0
 40
25.0
 40
25.0
 40
25.0
 10
-0.0000000000002274
 20
25.0
 30
0.0
 10
-0.0000000000001137
 20
12.5
 30
0.0
 10
0.0
 20
0.0
 30
0.0
  0
SPLINE
  5
65
330
1F
100
AcDbEntity
  8
Linee visibili 2D
100
AcDbSpline
210
0.0
220
0.0
230
1.0
 70
    24
 71
     2
 72
     6
 73
     3
 74
     0
 42
0.0000000001
 43
0.0000000001
 40
0.0
 40
0.0
 40
0.0
 40
80.0
 40
80.0
 40
80.0
 10
0.0
 20
0.0
 30
0.0
 10
40.0
 20
0.0
 30
0.0
 10
80.0
 20
0.0
 30
0.0
  0
SPLINE
  5
66
330
1F
100
AcDbEntity
  8
Linee visibili 2D
100
AcDbSpline
210
0.0
220
0.0
230
1.0
 70
    24
 71
     2
 72
     6
 73
     3
 74
     0
 42
0.0000000001
 43
0.0000000001
 40
0.0
 40
0.0
 40
0.0
 40
80.00000000000024
 40
80.00000000000024
 40
80.00000000000024
 10
80.0
 20
0.0
 30
0.0
 10
120.0000000000001
 20
0.0
 30
0.0
 10
160.0000000000002
 20
0.0
 30
0.0
  0
SPLINE
  5
67
330
1F
100
AcDbEntity
  8
Linee visibili 2D
100
AcDbSpline
210
0.0
220
0.0
230
1.0
 70
    24
 71
     2
 72
     6
 73
     3
 74
     0
 42
0.0000000001
 43
0.0000000001
 40
0.0
 40
0.0
 40
0.0
 40
79.99999999999932
 40
79.99999999999932
 40
79.99999999999932
 10
160.0000000000002
 20
0.0
 30
0.0
 10
200.0
 20
-0.0000000000001137
 30
0.0
 10
239.9999999999998
 20
-0.0000000000002274
 30
0.0
  0
SPLINE
  5
68
330
1F
100
AcDbEntity
  8
Linee visibili 2D
100
AcDbSpline
210
0.0
220
0.0
230
1.0
 70
    24
 71
     2
 72
     6
 73
     3
 74
     0
 42
0.0000000001
 43
0.0000000001
 40
0.0
 40
0.0
 40
0.0
 40
25.0
 40
25.0
 40
25.0
 10
240.0
 20
0.0
 30
0.0
 10
240.0
 20
12.5
 30
0.0
 10
240.0
 20
25.0
 30
0.0
  0
SPLINE
  5
69
330
1F
100
AcDbEntity
  8
Linee visibili 2D
100
AcDbSpline
210
0.0
220
0.0
230
1.0
 70
    12
 71
     2
 72
     6
 73
     3
 74
     0
 42
0.0000000001
 43
0.0000000001
 40
0.0
 40
0.0
 40
0.0
 40
7.853981633974548
 40
7.853981633974548
 40
7.853981633974548
 10
240.0
 20
25.0
 30
0.0
 41
1.0
 10
240.0000000000002
 20
30.0000000000005
 30
0.0
 41
0.7071067811864672
 10
235.0
 20
30.0
 30
0.0
 41
1.0
  0
SPLINE
  5
6A
330
1F
100
AcDbEntity
  8
Linee visibili 2D
100
AcDbSpline
210
0.0
220
0.0
230
1.0
 70
    24
 71
     2
 72
     6
 73
     3
 74
     0
 42
0.0000000001
 43
0.0000000001
 40
0.0
 40
0.0
 40
0.0
 40
75.0
 40
75.0
 40
75.0
 10
235.0
 20
30.0
 30
0.0
 10
197.5
 20
30.0
 30
0.0
 10
160.0
 20
30.0
 30
0.0
  0
SPLINE
  5
6B
330
1F
100
AcDbEntity
  8
Linee visibili 2D
100
AcDbSpline
210
0.0
220
0.0
230
1.0
 70
    24
 71
     2
 72
     6
 73
     3
 74
     0
 42
0.0000000001
 43
0.0000000001
 40
0.0
 40
0.0
 40
0.0
 40
80.0
 40
80.0
 40
80.0
 10
160.0
 20
30.0
 30
0.0
 10
120.0
 20
30.0
 30
0.0
 10
80.0
 20
30.0
 30
0.0
  0
SPLINE
  5
6C
330
1F
100
AcDbEntity
  8
Linee visibili 2D
100
AcDbSpline
210
0.0
220
0.0
230
1.0
 70
    24
 71
     2
 72
     6
 73
     3
 74
     0
 42
0.0000000001
 43
0.0000000001
 40
0.0
 40
0.0
 40
0.0
 40
75.0
 40
75.0
 40
75.0
 10
80.0
 20
30.0
 30
0.0
 10
42.5
 20
30.0
 30
0.0
 10
5.0
 20
30.0
 30
0.0
  0
SPLINE
  5
6D
330
1F
100
AcDbEntity
  8
Linee visibili 2D
100
AcDbSpline
210
0.0
220
0.0
230
1.0
 70
    12
 71
     2
 72
     6
 73
     3
 74
     0
 42
0.0000000001
 43
0.0000000001
 40
0.0
 40
0.0
 40
0.0
 40
7.853981633974709
 40
7.853981633974709
 40
7.853981633974709
 10
5.0
 20
30.0
 30
0.0
 41
1.0
 10
-0.00000000000019
 20
30.00000000000024
 30
0.0
 41
0.7071067811865315
 10
-0.0000000000002274
 20
25.0
 30
0.0
 41
1.0
  0
SPLINE
  5
6E
330
1F
100
AcDbEntity
  8
Linee visibili 2D
100
AcDbSpline
210
0.0
220
0.0
230
1.0
 70
    12
 71
     2
 72
     6
 73
     3
 74
     0
 42
0.0000000001
 43
0.0000000001
 40
-0.0389665347527904
 40
-0.0389665347527904
 40
-0.0389665347527904
 40
0.0
 40
0.0
 40
0.0
 10
225.5503992363379
 20
290.5021272900551
 30
0.0
 41
1.0
 10
225.5361788862776
 20
290.4888107995059
 30
0.0
 41
0.9999999811006519
 10
225.5223267591421
 20
290.4751007840991
 30
0.0
 41
0.9999999999974885
  0
SPLINE
  5
6F
330
1F
100
AcDbEntity
  8
Linee visibili 2D
100
AcDbSpline
210
0.0
220
0.0
230
1.0
 70
    12
 71
     2
 72
     6
 73
     3
 74
     0
 42
0.0000000001
 43
0.0000000001
 40
-40.49629025456652
 40
-40.49629025456652
 40
-40.49629025456652
 40
0.0
 40
0.0
 40
0.0
 10
225.5223267591421
 20
290.4751007840991
 30
0.0
 41
1.0
 10
210.0001837911859
 20
275.6958163286148
 30
0.0
 41
0.9191170136264176
 10
210.000000000822
 20
254.2628214720498
 30
0.0
 41
1.0
  0
SPLINE
  5
70
330
1F
100
AcDbEntity
  8
Linee visibili 2D
100
AcDbSpline
210
0.0
220
0.0
230
1.0
 70
     8
 71
     3
 72
    12
 73
     8
 74
     0
 42
0.0000000001
 43
0.0000000001
 40
0.0
 40
0.0
 40
0.0
 40
0.0
 40
1.107058903892782
 40
2.394733300971346
 40
4.776157169484164
 40
9.466030743118972
 40
18.77847266713303
 40
18.77847266713303
 40
18.77847266713303
 40
18.77847266713303
 10
210.000000000822
 20
254.2628214720498
 30
0.0
 10
209.8272301337304
 20
253.9365313447495
 30
0.0
 10
209.4495920192758
 20
253.2332538244659
 30
0.0
 10
208.6886558707254
 20
251.8348264104316
 30
0.0
 10
207.3319938923362
 20
249.4009970684262
 30
0.0
 10
204.5775089169824
 20
244.68474898049
 30
0.0
 10
202.0546541417193
 20
240.7555029267671
 30
0.0
 10
200.2948824524999
 20
238.1982878745
 30
0.0
  0
SPLINE
  5
71
330
1F
100
AcDbEntity
  8
Linee visibili 2D
100
AcDbSpline
210
0.0
220
0.0
230
1.0
 70
     8
 71
     3
 72
    16
 73
    12
 74
     0
 42
0.0000000001
 43
0.0000000001
 40
0.0
 40
0.0
 40
0.0
 40
0.0
 40
5.106415048839388
 40
10.04245383285797
 40
15.08185347133466
 40
20.61451215845019
 40
23.50560754139822
 40
26.46127457213649
 40
32.51357066650386
 40
38.7998165885262
 40
45.87821303403189
 40
45.87821303403189
 40
45.87821303403189
 40
45.87821303403189
 10
200.2948824524999
 20
238.1982878745
 30
0.0
 10
199.3302670361862
 20
236.7960181275691
 30
0.0
 10
197.2397145837317
 20
234.1701705251271
 30
0.0
 10
193.5677662540261
 20
230.7182816372158
 30
0.0
 10
189.3398204860421
 20
227.7234042040163
 30
0.0
 10
185.3581019805324
 20
225.6330502861786
 30
0.0
 10
181.8551523729204
 20
224.1750304752038
 30
0.0
 10
178.1122665522216
 20
222.8568925627179
 30
0.0
 10
173.1805602729548
 20
221.5427884790181
 30
0.0
 10
166.7987186559992
 20
220.4318083880767
 30
0.0
 10
162.3570889784189
 20
220.0378488597084
 30
0.0
 10
159.9999999999975
 20
219.931357312
 30
0.0
  0
SPLINE
  5
72
330
1F
100
AcDbEntity
  8
Linee visibili 2D
100
AcDbSpline
210
0.0
220
0.0
230
1.0
 70
    12
 71
     2
 72
    10
 73
     7
 74
     0
 42
0.0000000001
 43
0.0000000001
 40
0.0
 40
0.0
 40
0.0
 40
1.743032236567171
 40
1.743032236567171
 40
2.596336654579587
 40
2.596336654579587
 40
2.809636751457373
 40
2.809636751457373
 40
2.809636751457373
 10
159.9999999999975
 20
219.931357312
 30
0.0
 41
1.0
 10
159.1286923508208
 20
219.9116657395521
 30
0.0
 41
0.9999758745417164
 10
158.2571952249991
 20
219.90408041
 30
0.0
 41
1.0
 10
157.8305573830652
 20
219.9003765436051
 30
0.0
 41
0.9999939873175975
 10
157.4039041139997
 20
219.8996317000001
 30
0.0
 41
1.0
 10
157.2972541995939
 20
219.8994462749812
 30
0.0
 41
0.9999996180054807
 10
157.1906041239999
 20
219.8994472879999
 30
0.0
 41
1.0
  0
SPLINE
  5
73
330
1F
100
AcDbEntity
  8
Linee visibili 2D
100
AcDbSpline
210
0.0
220
0.0
230
1.0
 70
    24
 71
     2
 72
     6
 73
     3
 74
     0
 42
0.0000000001
 43
0.0000000001
 40
0.0
 40
0.0
 40
0.0
 40
74.38120214800005
 40
74.38120214800005
 40
74.38120214800005
 10
157.1906041239999
 20
219.8994472879999
 30
0.0
 10
120.0000030499999
 20
219.8994472879999
 30
0.0
 10
82.80940197599989
 20
219.8994472879999
 30
0.0
  0
SPLINE
  5
74
330
1F
100
AcDbEntity
  8
Linee visibili 2D
100
AcDbSpline
210
0.0
220
0.0
230
1.0
 70
    12
 71
     2
 72
    10
 73
     7
 74
     0
 42
0.0000000001
 43
0.0000000001
 40
0.0
 40
0.0
 40
0.0
 40
0.2133005599574666
 40
0.2133005599574666
 40
1.066606830550094
 40
1.066606830550094
 40
2.809642850934246
 40
2.809642850934246
 40
2.809642850934246
 10
82.80940197599989
 20
219.8994472879999
 30
0.0
 41
1.0
 10
82.70275166886619
 20
219.8994462749811
 30
0.0
 41
0.9999996180071391
 10
82.59610152292019
 20
219.8996317000001
 30
0.0
 41
1.0
 10
82.16944732756674
 20
219.9003765436057
 30
0.0
 41
0.9999939873437098
 10
81.7428085593117
 20
219.90408041
 30
0.0
 41
1.0
 10
80.87130954154034
 20
219.9116657395486
 30
0.0
 41
0.9999758746464541
 10
80.0000000000025
 20
219.931357312
 30
0.0
 41
1.0
  0
SPLINE
  5
75
330
1F
100
AcDbEntity
  8
Linee visibili 2D
100
AcDbSpline
210
0.0
220
0.0
230
1.0
 70
     8
 71
     3
 72
    16
 73
    12
 74
     0
 42
0.0000000001
 43
0.0000000001
 40
0.0
 40
0.0
 40
0.0
 40
0.0
 40
7.078397297269758
 40
13.36464463030808
 40
19.4169428056808
 40
22.3726111634874
 40
25.26370806905643
 40
30.79637035304219
 40
35.83577407940454
 40
40.77181753422318
 40
45.87817700633404
 40
45.87817700633404
 40
45.87817700633404
 40
45.87817700633404
 10
80.0000000000025
 20
219.931357312
 30
0.0
 10
77.6429108458849
 20
220.0378511627353
 30
0.0
 10
73.20128079557503
 20
220.4318152788292
 30
0.0
 10
66.81943898010809
 20
221.5428026190709
 30
0.0
 10
61.88773262180848
 20
222.8569127632404
 30
0.0
 10
58.1448468362878
 20
224.1750556262521
 30
0.0
 10
54.64189683817494
 20
225.6330802771636
 30
0.0
 10
50.66017829029306
 20
227.7234404334338
 30
0.0
 10
46.4322319927503
 20
230.7183245158308
 30
0.0
 10
42.76029919791517
 20
234.170206805258
 30
0.0
 10
40.66975566789074
 20
236.7960395025912
 30
0.0
 10
39.70515049557025
 20
238.1982938421982
 30
0.0
  0
SPLINE
  5
76
330
1F
100
AcDbEntity
  8
Linee visibili 2D
100
AcDbSpline
210
0.0
220
0.0
230
1.0
 70
    12
 71
     2
 72
     6
 73
     3
 74
     0
 42
0.0000000001
 43
0.0000000001
 40
0.0
 40
0.0
 40
0.0
 40
0.4481861844660779
 40
0.4481861844660779
 40
0.4481861844660779
 10
39.70515049557025
 20
238.1982938421982
 30
0.0
 41
1.0
 10
39.57811037115705
 20
238.382897737325
 30
0.0
 41
0.999998819621846
 10
39.45162626753369
 20
238.5678830422648
 30
0.0
 41
0.9999999999999598
  0
SPLINE
  5
77
330
1F
100
AcDbEntity
  8
Linee visibili 2D
100
AcDbSpline
210
0.0
220
0.0
230
1.0
 70
    12
 71
     2
 72
     6
 73
     3
 74
     0
 42
0.0000000001
 43
0.0000000001
 40
-0.0252296312554169
 40
-0.0252296312554169
 40
-0.0252296312554169
 40
0.0
 40
0.0
 40
0.0
 10
39.45162626753361
 20
238.5678830422649
 30
0.0
 41
0.9999999999999978
 10
39.44449431835565
 20
238.578288275529
 30
0.0
 41
0.9999999962615317
 10
39.43738849800786
 20
238.5887113709162
 30
0.0
 41
0.9999999999999971
  0
SPLINE
  5
78
330
1F
100
AcDbEntity
  8
Linee visibili 2D
100
AcDbSpline
210
0.0
220
0.0
230
1.0
 70
    12
 71
     2
 72
     6
 73
     3
 74
     0
 42
0.0000000001
 43
0.0000000001
 40
0.0
 40
0.0
 40
0.0
 40
0.4202602582128401
 40
0.4202602582128401
 40
0.4202602582128401
 10
39.43738849800769
 20
238.5887113709161
 30
0.0
 41
0.9999999999999593
 10
39.31883894853586
 20
238.7622069967678
 30
0.0
 41
0.9999989751972423
 10
39.2007521607982
 20
238.9360179253944
 30
0.0
 41
0.9999999999999513
  0
SPLINE
  5
79
330
1F
100
AcDbEntity
  8
Linee visibili 2D
100
AcDbSpline
210
0.0
220
0.0
230
1.0
 70
    12
 71
     2
 72
     6
 73
     3
 74
     0
 42
0.0000000001
 43
0.0000000001
 40
-0.0492991876246066
 40
-0.0492991876246066
 40
-0.0492991876246066
 40
0.0
 40
0.0
 40
0.0
 10
39.20075216079811
 20
238.9360179253942
 30
0.0
 41
0.9999999999999952
 10
39.18687936570676
 20
238.9563931195724
 30
0.0
 41
0.999999985919657
 10
39.1730584307395
 20
238.9768035422742
 30
0.0
 41
1.0
  0
SPLINE
  5
7A
330
1F
100
AcDbEntity
  8
Linee visibili 2D
100
AcDbSpline
210
0.0
220
0.0
230
1.0
 70
    12
 71
     2
 72
     6
 73
     3
 74
     0
 42
0.0000000001
 43
0.0000000001
 40
0.0
 40
0.0
 40
0.0
 40
0.1724197767671544
 40
0.1724197767671544
 40
0.1724197767671544
 10
39.1730584307395
 20
238.9768035422742
 30
0.0
 41
1.0
 10
39.12466694595987
 20
239.0481506715145
 30
0.0
 41
0.9999998291591923
 10
39.07630934940236
 20
239.1195207604475
 30
0.0
 41
0.9999999999999808
  0
SPLINE
  5
7B
330
1F
100
AcDbEntity
  8
Linee visibili 2D
100
AcDbSpline
210
0.0
220
0.0
230
1.0
 70
    12
 71
     2
 72
     6
 73
     3
 74
     0
 42
0.0000000001
 43
0.0000000001
 40
-0.0608966904536722
 40
-0.0608966904536722
 40
-0.0608966904536722
 40
0.0
 40
0.0
 40
0.0
 10
39.07630934940249
 20
239.1195207604473
 30
0.0
 41
0.9999999999999943
 10
39.05921165881635
 20
239.14471543264
 30
0.0
 41
0.9999999786607
 10
39.04217859844334
 20
239.169953850198
 30
0.0
 41
1.0
  0
SPLINE
  5
7C
330
1F
100
AcDbEntity
  8
Linee visibili 2D
100
AcDbSpline
210
0.0
220
0.0
230
1.0
 70
    12
 71
     2
 72
     6
 73
     3
 74
     0
 42
0.0000000001
 43
0.0000000001
 40
0.0
 40
0.0
 40
0.0
 40
0.1601303631210462
 40
0.1601303631210462
 40
0.1601303631210462
 10
39.04217859844334
 20
239.169953850198
 30
0.0
 41
1.0
 10
38.99734739934387
 20
239.2362908643712
 30
0.0
 41
0.9999998535848227
 10
38.95252959450381
 20
239.3026369237699
 30
0.0
 41
0.9999999999999841
  0
SPLINE
  5
7D
330
1F
100
AcDbEntity
  8
Linee visibili 2D
100
AcDbSpline
210
0.0
220
0.0
230
1.0
 70
    12
 71
     2
 72
     6
 73
     3
 74
     0
 42
0.0000000001
 43
0.0000000001
 40
-4.16295738314172
 40
-4.16295738314172
 40
-4.16295738314172
 40
0.0
 40
0.0
 40
0.0
 10
38.95252959450388
 20
239.3026369237701
 30
0.0
 41
0.9999999999994487
 10
37.78825225714385
 20
241.0281949860124
 30
0.0
 41
0.9999067363100103
 10
36.6716287173681
 20
242.7849659608496
 30
0.0
 41
1.0
  0
SPLINE
  5
7E
330
1F
100
AcDbEntity
  8
Linee visibili 2D
100
AcDbSpline
210
0.0
220
0.0
230
1.0
 70
    12
 71
     2
 72
     6
 73
     3
 74
     0
 42
0.0000000001
 43
0.0000000001
 40
0.0
 40
0.0
 40
0.0
 40
0.1029701394517196
 40
0.1029701394517196
 40
0.1029701394517196
 10
36.67162871736814
 20
242.7849659608495
 30
0.0
 41
0.9999999999999996
 10
36.64406344187142
 20
242.8284501329806
 30
0.0
 41
0.9999999464202316
 10
36.61640665613913
 20
242.8718761622208
 30
0.0
 41
1.0
  0
SPLINE
  5
7F
330
1F
100
AcDbEntity
  8
Linee visibili 2D
100
AcDbSpline
210
0.0
220
0.0
230
1.0
 70
    12
 71
     2
 72
     6
 73
     3
 74
     0
 42
0.0000000001
 43
0.0000000001
 40
-0.1194071640025453
 40
-0.1194071640025453
 40
-0.1194071640025453
 40
0.0
 40
0.0
 40
0.0
 10
36.61640665613913
 20
242.8718761622208
 30
0.0
 41
1.0
 10
36.58434487281964
 20
242.9222404880662
 30
0.0
 41
0.9999999281130858
 10
36.55244083390315
 20
242.9727048846469
 30
0.0
 41
0.9999999999999998
  0
SPLINE
  5
80
330
1F
100
AcDbEntity
  8
Linee visibili 2D
100
AcDbSpline
210
0.0
220
0.0
230
1.0
 70
    12
 71
     2
 72
     6
 73
     3
 74
     0
 42
0.0000000001
 43
0.0000000001
 40
0.0
 40
0.0
 40
0.0
 40
0.0856869641987525
 40
0.0856869641987525
 40
0.0856869641987525
 10
36.55244083390317
 20
242.9727048846468
 30
0.0
 41
0.9999999999999996
 10
36.52956302728655
 20
243.0089288404535
 30
0.0
 41
0.9999999631172775
 10
36.50658580052232
 20
243.0450898222703
 30
0.0
 41
1.0
  0
SPLINE
  5
81
330
1F
100
AcDbEntity
  8
Linee visibili 2D
100
AcDbSpline
210
0.0
220
0.0
230
1.0
 70
    12
 71
     2
 72
     6
 73
     3
 74
     0
 42
0.0000000001
 43
0.0000000001
 40
-0.1354312164202616
 40
-0.1354312164202616
 40
-0.1354312164202616
 40
0.0
 40
0.0
 40
0.0
 10
36.50658580052232
 20
243.0450898222703
 30
0.0
 41
1.0
 10
36.47030434574558
 20
243.1022655688368
 30
0.0
 41
0.9999999080999232
 10
36.43419054608242
 20
243.1595473505175
 30
0.0
 41
0.9999999999999998
  0
SPLINE
  5
82
330
1F
100
AcDbEntity
  8
Linee visibili 2D
100
AcDbSpline
210
0.0
220
0.0
230
1.0
 70
    12
 71
     2
 72
     6
 73
     3
 74
     0
 42
0.0000000001
 43
0.0000000001
 40
0.0
 40
0.0
 40
0.0
 40
0.0688363356307247
 40
0.0688363356307247
 40
0.0688363356307247
 10
36.43419054608244
 20
243.1595473505173
 30
0.0
 41
0.9999999999999996
 10
36.41586369601763
 20
243.1886805232324
 30
0.0
 41
0.9999999763388572
 10
36.39743138883682
 20
243.2177471014384
 30
0.0
 41
1.0
  0
SPLINE
  5
83
330
1F
100
AcDbEntity
  8
Linee visibili 2D
100
AcDbSpline
210
0.0
220
0.0
230
1.0
 70
    12
 71
     2
 72
     6
 73
     3
 74
     0
 42
0.0000000001
 43
0.0000000001
 40
-0.151012505716371
 40
-0.151012505716371
 40
-0.151012505716371
 40
0.0
 40
0.0
 40
0.0
 10
36.39743138883682
 20
243.2177471014384
 30
0.0
 41
1.0
 10
36.35706557625582
 20
243.2815577800858
 30
0.0
 41
0.9999998864465966
 10
36.31687823138898
 20
243.3454809932451
 30
0.0
 41
0.9999999999999998
  0
SPLINE
  5
84
330
1F
100
AcDbEntity
  8
Linee visibili 2D
100
AcDbSpline
210
0.0
220
0.0
230
1.0
 70
    12
 71
     2
 72
     6
 73
     3
 74
     0
 42
0.0000000001
 43
0.0000000001
 40
0.0
 40
0.0
 40
0.0
 40
0.0524222078025609
 40
0.0524222078025609
 40
0.0524222078025609
 10
36.316878231389
 20
243.3454809932449
 30
0.0
 41
0.9999999999999996
 10
36.30296579669971
 20
243.3676951931126
 30
0.0
 41
0.9999999863596098
 10
36.28894358891208
 20
243.3898402643624
 30
0.0
 41
0.9999999999999952
  0
SPLINE
  5
85
330
1F
100
AcDbEntity
  8
Linee visibili 2D
100
AcDbSpline
210
0.0
220
0.0
230
1.0
 70
    12
 71
     2
 72
     6
 73
     3
 74
     0
 42
0.0000000001
 43
0.0000000001
 40
-0.1661471076700201
 40
-0.1661471076700201
 40
-0.1661471076700201
 40
0.0
 40
0.0
 40
0.0
 10
36.28894358891213
 20
243.3898402643625
 30
0.0
 41
0.9999999999999838
 10
36.24462888767271
 20
243.4601070971935
 30
0.0
 41
0.9999998633965519
 10
36.20050427057075
 20
243.5304934498136
 30
0.0
 41
0.9999999999999998
  0
SPLINE
  5
86
330
1F
100
AcDbEntity
  8
Linee visibili 2D
100
AcDbSpline
210
0.0
220
0.0
230
1.0
 70
    12
 71
     2
 72
     6
 73
     3
 74
     0
 42
0.0000000001
 43
0.0000000001
 40
0.0
 40
0.0
 40
0.0
 40
0.8383331798240901
 40
0.8383331798240901
 40
0.8383331798240901
 10
36.20050427057076
 20
243.5304934498135
 30
0.0
 41
0.9999999999999978
 10
35.97762754622849
 20
243.8854968347187
 30
0.0
 41
0.9999965729161127
 10
35.75650012938718
 20
244.2415924765705
 30
0.0
 41
1.0
  0
SPLINE
  5
87
330
1F
100
AcDbEntity
  8
Linee visibili 2D
100
AcDbSpline
210
0.0
220
0.0
230
1.0
 70
    12
 71
     2
 72
     6
 73
     3
 74
     0
 42
0.0000000001
 43
0.0000000001
 40
-0.0229423201485548
 40
-0.0229423201485548
 40
-0.0229423201485548
 40
0.0
 40
0.0
 40
0.0
 10
35.75650012938718
 20
244.2415924765705
 30
0.0
 41
1.0
 10
35.75039602449184
 20
244.2513049157964
 30
0.0
 41
0.9999999974333023
 10
35.74440166739285
 20
244.2610854651487
 30
0.0
 41
0.9999999999999978
  0
SPLINE
  5
88
330
1F
100
AcDbEntity
  8
Linee visibili 2D
100
AcDbSpline
210
0.0
220
0.0
230
1.0
 70
    12
 71
     2
 72
     6
 73
     3
 74
     0
 42
0.0000000001
 43
0.0000000001
 40
0.0
 40
0.0
 40
0.0
 40
0.1753758184994981
 40
0.1753758184994981
 40
0.1753758184994981
 10
35.74440166739289
 20
244.2610854651488
 30
0.0
 41
0.9999999999999827
 10
35.69821846535305
 20
244.3356259638535
 30
0.0
 41
0.9999998521479987
 10
35.65201037917336
 20
244.4101510460559
 30
0.0
 41
1.0
  0
SPLINE
  5
89
330
1F
100
AcDbEntity
  8
Linee visibili 2D
100
AcDbSpline
210
0.0
220
0.0
230
1.0
 70
    12
 71
     2
 72
     6
 73
     3
 74
     0
 42
0.0000000001
 43
0.0000000001
 40
-0.0366411870962653
 40
-0.0366411870962653
 40
-0.0366411870962653
 40
0.0
 40
0.0
 40
0.0
 10
35.65201037917336
 20
244.4101510460559
 30
0.0
 41
1.0
 10
35.64231559063516
 20
244.4256964362756
 30
0.0
 41
0.9999999935090237
 10
35.63272763581835
 20
244.441307939125
 30
0.0
 41
1.0
  0
SPLINE
  5
8A
330
1F
100
AcDbEntity
  8
Linee visibili 2D
100
AcDbSpline
210
0.0
220
0.0
230
1.0
 70
    12
 71
     2
 72
     6
 73
     3
 74
     0
 42
0.0000000001
 43
0.0000000001
 40
0.0
 40
0.0
 40
0.0
 40
0.1607913365377505
 40
0.1607913365377505
 40
0.1607913365377505
 10
35.63272763581835
 20
244.441307939125
 30
0.0
 41
1.0
 10
35.59047674967898
 20
244.5097062645078
 30
0.0
 41
0.999999876402138
 10
35.54819344081557
 20
244.5780845605232
 30
0.0
 41
1.0
  0
SPLINE
  5
8B
330
1F
100
AcDbEntity
  8
Linee visibili 2D
100
AcDbSpline
210
0.0
220
0.0
230
1.0
 70
    12
 71
     2
 72
     6
 73
     3
 74
     0
 42
0.0000000001
 43
0.0000000001
 40
-4.493168207762758
 40
-4.493168207762758
 40
-4.493168207762758
 40
0.0
 40
0.0
 40
0.0
 10
35.54819344081557
 20
244.5780845605231
 30
0.0
 41
0.9999999999999777
 10
34.36824688344092
 20
246.4900134499544
 30
0.0
 41
0.9999099864917772
 10
33.24011140158609
 20
248.4329638631912
 30
0.0
 41
1.0
  0
SPLINE
  5
8C
330
1F
100
AcDbEntity
  8
Linee visibili 2D
100
AcDbSpline
210
0.0
220
0.0
230
1.0
 70
    12
 71
     2
 72
     6
 73
     3
 74
     0
 42
0.0000000001
 43
0.0000000001
 40
0.0
 40
0.0
 40
0.0
 40
0.1129557874786491
 40
0.1129557874786491
 40
0.1129557874786491
 10
33.24011140158609
 20
248.4329638631912
 30
0.0
 41
1.0
 10
33.2117831073164
 20
248.4818234788135
 30
0.0
 41
0.9999999460491087
 10
33.18341424835348
 20
248.5306595531438
 30
0.0
 41
0.9999999999999968
  0
SPLINE
  5
8D
330
1F
100
AcDbEntity
  8
Linee visibili 2D
100
AcDbSpline
210
0.0
220
0.0
230
1.0
 70
    12
 71
     2
 72
     6
 73
     3
 74
     0
 42
0.0000000001
 43
0.0000000001
 40
-0.0612694039595546
 40
-0.0612694039595546
 40
-0.0612694039595546
 40
0.0
 40
0.0
 40
0.0
 10
33.18341424835349
 20
248.5306595531438
 30
0.0
 41
0.9999999999999984
 10
33.1680092094962
 20
248.5571391957036
 30
0.0
 41
0.9999999839755936
 10
33.15268754335038
 20
248.5836671672806
 30
0.0
 41
0.9999999999999998
  0
SPLINE
  5
8E
330
1F
100
AcDbEntity
  8
Linee visibili 2D
100
AcDbSpline
210
0.0
220
0.0
230
1.0
 70
    12
 71
     2
 72
     6
 73
     3
 74
     0
 42
0.0000000001
 43
0.0000000001
 40
0.0
 40
0.0
 40
0.0
 40
0.1081048915052639
 40
0.1081048915052639
 40
0.1081048915052639
 10
33.15268754335034
 20
248.5836671672805
 30
0.0
 41
1.0
 10
33.12562593840072
 20
248.6304575330397
 30
0.0
 41
0.999999950802246
 10
33.09851887830097
 20
248.6772215801857
 30
0.0
 41
0.9999999999999971
  0
SPLINE
  5
8F
330
1F
100
AcDbEntity
  8
Linee visibili 2D
100
AcDbSpline
210
0.0
220
0.0
230
1.0
 70
    12
 71
     2
 72
     6
 73
     3
 74
     0
 42
0.0000000001
 43
0.0000000001
 40
-0.0644026118007135
 40
-0.0644026118007135
 40
-0.0644026118007135
 40
0.0
 40
0.0
 40
0.0
 10
33.09851887830082
 20
248.6772215801857
 30
0.0
 41
0.9999999999999984
 10
33.08235458972645
 20
248.7050719248508
 30
0.0
 41
0.999999982310994
 10
33.06627633973611
 20
248.7329720291783
 30
0.0
 41
0.9999999999999998
  0
SPLINE
  5
90
330
1F
100
AcDbEntity
  8
Linee visibili 2D
100
AcDbSpline
210
0.0
220
0.0
230
1.0
 70
    12
 71
     2
 72
     6
 73
     3
 74
     0
 42
0.0000000001
 43
0.0000000001
 40
0.0
 40
0.0
 40
0.0
 40
0.1036977653731014
 40
0.1036977653731014
 40
0.1036977653731014
 10
33.06627633973608
 20
248.7329720291782
 30
0.0
 41
1.0
 10
33.04036512983879
 20
248.7778821369195
 30
0.0
 41
0.9999999549317978
 10
33.0144049337778
 20
248.8227639462902
 30
0.0
 41
0.9999999999999978
  0
SPLINE
  5
91
330
1F
100
AcDbEntity
  8
Linee visibili 2D
100
AcDbSpline
210
0.0
220
0.0
230
1.0
 70
    12
 71
     2
 72
     6
 73
     3
 74
     0
 42
0.0000000001
 43
0.0000000001
 40
-0.0670738549375512
 40
-0.0670738549375512
 40
-0.0670738549375512
 40
0.0
 40
0.0
 40
0.0
 10
33.0144049337777
 20
248.8227639462902
 30
0.0
 41
0.9999999999999987
 10
32.99759987330754
 20
248.8517866496189
 30
0.0
 41
0.9999999808245451
 10
32.98088228976647
 20
248.8808598290771
 30
0.0
 41
0.9999999999999998
  0
SPLINE
  5
92
330
1F
100
AcDbEntity
  8
Linee visibili 2D
100
AcDbSpline
210
0.0
220
0.0
230
1.0
 70
    12
 71
     2
 72
     6
 73
     3
 74
     0
 42
0.0000000001
 43
0.0000000001
 40
0.0
 40
0.0
 40
0.0
 40
0.0997381005235515
 40
0.0997381005235515
 40
0.0997381005235515
 10
32.98088228976649
 20
248.8808598290769
 30
0.0
 41
0.9999999999999996
 10
32.95600477815707
 20
248.924080583691
 30
0.0
 41
0.9999999584888822
 10
32.93107631947692
 20
248.9672719735672
 30
0.0
 41
1.0
  0
SPLINE
  5
93
330
1F
100
AcDbEntity
  8
Linee visibili 2D
100
AcDbSpline
210
0.0
220
0.0
230
1.0
 70
    12
 71
     2
 72
     6
 73
     3
 74
     0
 42
0.0000000001
 43
0.0000000001
 40
-0.0692791268582692
 40
-0.0692791268582692
 40
-0.0692791268582692
 40
0.0
 40
0.0
 40
0.0
 10
32.93107631947692
 20
248.9672719735672
 30
0.0
 41
1.0
 10
32.91374947291516
 20
248.9972666671563
 30
0.0
 41
0.9999999797907882
 10
32.89651001406656
 20
249.0273116714621
 30
0.0
 41
0.9999999999999996
  0
SPLINE
  5
94
330
1F
100
AcDbEntity
  8
Linee visibili 2D
100
AcDbSpline
210
0.0
220
0.0
230
1.0
 70
    12
 71
     2
 72
     6
 73
     3
 74
     0
 42
0.0000000001
 43
0.0000000001
 40
0.0
 40
0.0
 40
0.0
 40
0.0960919977495161
 40
0.0960919977495161
 40
0.0960919977495161
 10
32.89651001406641
 20
249.0273116714623
 30
0.0
 41
0.9999999999999987
 10
32.87258344372895
 20
249.0689762736546
 30
0.0
 41
0.9999999616334843
 10
32.84860543033365
 20
249.1106112909611
 30
0.0
 41
0.9999999999999984
  0
SPLINE
  5
95
330
1F
100
AcDbEntity
  8
Linee visibili 2D
100
AcDbSpline
210
0.0
220
0.0
230
1.0
 70
    12
 71
     2
 72
     6
 73
     3
 74
     0
 42
0.0000000001
 43
0.0000000001
 40
-0.071151718039588
 40
-0.071151718039588
 40
-0.071151718039588
 40
0.0
 40
0.0
 40
0.0
 10
32.84860543033365
 20
249.1106112909611
 30
0.0
 41
0.9999999999999984
 10
32.83084162984622
 20
249.1414348350605
 30
0.0
 41
0.9999999788461487
 10
32.81316409062205
 20
249.1723079308187
 30
0.0
 41
0.9999999999999992
  0
SPLINE
  5
96
330
1F
100
AcDbEntity
  8
Linee visibili 2D
100
AcDbSpline
210
0.0
220
0.0
230
1.0
 70
    12
 71
     2
 72
     6
 73
     3
 74
     0
 42
0.0000000001
 43
0.0000000001
 40
0.0
 40
0.0
 40
0.0
 40
0.0926168033141883
 40
0.0926168033141883
 40
0.0926168033141883
 10
32.81316409062191
 20
249.1723079308187
 30
0.0
 41
0.9999999999999987
 10
32.79014193641928
 20
249.2124881525082
 30
0.0
 41
0.9999999644996828
 10
32.76706869357977
 20
249.2526390578724
 30
0.0
 41
0.9999999999999987
  0
SPLINE
  5
97
330
1F
100
AcDbEntity
  8
Linee visibili 2D
100
AcDbSpline
210
0.0
220
0.0
230
1.0
 70
    12
 71
     2
 72
     6
 73
     3
 74
     0
 42
0.0000000001
 43
0.0000000001
 40
-0.0727204657459033
 40
-0.0727204657459033
 40
-0.0727204657459033
 40
0.0
 40
0.0
 40
0.0
 10
32.76706869357979
 20
249.2526390578722
 30
0.0
 41
0.9999999999999987
 10
32.74894495777353
 20
249.2841604532765
 30
0.0
 41
0.9999999780619656
 10
32.73090575254067
 20
249.3157302994927
 30
0.0
 41
0.9999999999999992
  0
SPLINE
  5
98
330
1F
100
AcDbEntity
  8
Linee visibili 2D
100
AcDbSpline
210
0.0
220
0.0
230
1.0
 70
    12
 71
     2
 72
     6
 73
     3
 74
     0
 42
0.0000000001
 43
0.0000000001
 40
0.0
 40
0.0
 40
0.0
 40
0.0894168627208132
 40
0.0894168627208132
 40
0.0894168627208132
 10
32.73090575254052
 20
249.3157302994927
 30
0.0
 41
0.9999999999999987
 10
32.7087159769013
 20
249.3545434326915
 30
0.0
 41
0.9999999670708195
 10
32.68647605153716
 20
249.3933278510122
 30
0.0
 41
0.9999999999999992
  0
SPLINE
  5
99
330
1F
100
AcDbEntity
  8
Linee visibili 2D
100
AcDbSpline
210
0.0
220
0.0
230
1.0
 70
    12
 71
     2
 72
     6
 73
     3
 74
     0
 42
0.0000000001
 43
0.0000000001
 40
-0.0738348284832249
 40
-0.0738348284832249
 40
-0.0738348284832249
 40
0.0
 40
0.0
 40
0.0
 10
32.68647605153697
 20
249.3933278510122
 30
0.0
 41
0.9999999999999987
 10
32.66810628351202
 20
249.4253504776484
 30
0.0
 41
0.9999999775372163
 10
32.64981884930091
 20
249.4574201937033
 30
0.0
 41
0.9999999999999992
  0
SPLINE
  5
9A
330
1F
100
AcDbEntity
  8
Linee visibili 2D
100
AcDbSpline
210
0.0
220
0.0
230
1.0
 70
    12
 71
     2
 72
     6
 73
     3
 74
     0
 42
0.0000000001
 43
0.0000000001
 40
0.0
 40
0.0
 40
0.0
 40
0.0866427200011374
 40
0.0866427200011374
 40
0.0866427200011374
 10
32.64981884930076
 20
249.4574201937032
 30
0.0
 41
0.9999999999999984
 10
32.6283525122022
 20
249.4950491444611
 30
0.0
 41
0.9999999697150599
 10
32.60683735326089
 20
249.5326502006505
 30
0.0
 41
0.9999999999999968
  0
SPLINE
  5
9B
330
1F
100
AcDbEntity
  8
Linee visibili 2D
100
AcDbSpline
210
0.0
220
0.0
230
1.0
 70
    12
 71
     2
 72
     6
 73
     3
 74
     0
 42
0.0000000001
 43
0.0000000001
 40
-0.0744737455864703
 40
-0.0744737455864703
 40
-0.0744737455864703
 40
0.0
 40
0.0
 40
0.0
 10
32.60683735326091
 20
249.5326502006506
 30
0.0
 41
0.9999999999999968
 10
32.58834009831482
 20
249.5649679590515
 30
0.0
 41
0.9999999772912872
 10
32.56992234968822
 20
249.5973310925956
 30
0.0
 41
0.9999999999999992
  0
SPLINE
  5
9C
330
1F
100
AcDbEntity
  8
Linee visibili 2D
100
AcDbSpline
210
0.0
220
0.0
230
1.0
 70
    12
 71
     2
 72
     6
 73
     3
 74
     0
 42
0.0000000001
 43
0.0000000001
 40
0.0
 40
0.0
 40
0.0
 40
0.0843154113895533
 40
0.0843154113895533
 40
0.0843154113895533
 10
32.5699223496881
 20
249.5973310925957
 30
0.0
 41
0.9999999999999982
 10
32.54906543434657
 20
249.6339679921401
 30
0.0
 41
0.9999999712726747
 10
32.52816218367355
 20
249.6705784735653
 30
0.0
 41
0.9999999999999971
  0
SPLINE
  5
9D
330
1F
100
AcDbEntity
  8
Linee visibili 2D
100
AcDbSpline
210
0.0
220
0.0
230
1.0
 70
    12
 71
     2
 72
     6
 73
     3
 74
     0
 42
0.0000000001
 43
0.0000000001
 40
-3.322154301612493
 40
-3.322154301612493
 40
-3.322154301612493
 40
0.0
 40
0.0
 40
0.0
 10
32.52816218367363
 20
249.6705784735655
 30
0.0
 41
0.9999999999998035
 10
31.70585388472622
 20
251.1138889446744
 30
0.0
 41
0.9999568469368252
 10
30.91055063247245
 20
252.5722540544048
 30
0.0
 41
1.0
  0
SPLINE
  5
9E
330
1F
100
AcDbEntity
  8
Linee visibili 2D
100
AcDbSpline
210
0.0
220
0.0
230
1.0
 70
    12
 71
     2
 72
     6
 73
     3
 74
     0
 42
0.0000000001
 43
0.0000000001
 40
0.0
 40
0.0
 40
0.0
 40
0.0149989347905845
 40
0.0149989347905845
 40
0.0149989347905845
 10
30.91055063247245
 20
252.5722540544048
 30
0.0
 41
1.0
 10
30.90697546807052
 20
252.5788465147369
 30
0.0
 41
0.9999999991396075
 10
30.90336931633078
 20
252.5854220772994
 30
0.0
 41
1.0
  0
SPLINE
  5
9F
330
1F
100
AcDbEntity
  8
Linee visibili 2D
100
AcDbSpline
210
0.0
220
0.0
230
1.0
 70
    12
 71
     2
 72
     6
 73
     3
 74
     0
 42
0.0000000001
 43
0.0000000001
 40
-0.0843890877923657
 40
-0.0843890877923657
 40
-0.0843890877923657
 40
0.0
 40
0.0
 40
0.0
 10
30.90336931633078
 20
252.5854220772994
 30
0.0
 41
1.0
 10
30.88315281888111
 20
252.622458184843
 30
0.0
 41
0.9999999735049499
 10
30.86298503021976
 20
252.6595208375466
 30
0.0
 41
1.0
  0
SPLINE
  5
A0
330
1F
100
AcDbEntity
  8
Linee visibili 2D
100
AcDbSpline
210
0.0
220
0.0
230
1.0
 70
    12
 71
     2
 72
     6
 73
     3
 74
     0
 42
0.0000000001
 43
0.0000000001
 40
0.0
 40
0.0
 40
0.0
 40
0.0204337482892385
 40
0.0204337482892385
 40
0.0204337482892385
 10
30.86298503021976
 20
252.6595208375466
 30
0.0
 41
1.0
 10
30.85811374295481
 20
252.6685016730913
 30
0.0
 41
0.999999998421852
 10
30.85321163869344
 20
252.6774657246713
 30
0.0
 41
1.0
  0
SPLINE
  5
A1
330
1F
100
AcDbEntity
  8
Linee visibili 2D
100
AcDbSpline
210
0.0
220
0.0
230
1.0
 70
    12
 71
     2
 72
     6
 73
     3
 74
     0
 42
0.0000000001
 43
0.0000000001
 40
-0.0764898406727801
 40
-0.0764898406727801
 40
-0.0764898406727801
 40
0.0
 40
0.0
 40
0.0
 10
30.85321163869344
 20
252.6774657246713
 30
0.0
 41
1.0
 10
30.83490505334643
 20
252.711044635385
 30
0.0
 41
0.9999999784718907
 10
30.81664459203262
 20
252.7446486510421
 30
0.0
 41
1.0
  0
SPLINE
  5
A2
330
1F
100
AcDbEntity
  8
Linee visibili 2D
100
AcDbSpline
210
0.0
220
0.0
230
1.0
 70
    12
 71
     2
 72
     6
 73
     3
 74
     0
 42
0.0000000001
 43
0.0000000001
 40
0.0
 40
0.0
 40
0.0
 40
0.0258692096987132
 40
0.0258692096987132
 40
0.0258692096987132
 10
30.81664459203262
 20
252.7446486510421
 30
0.0
 41
1.0
 10
30.81047969247245
 20
252.7560195948764
 30
0.0
 41
0.9999999975123463
 10
30.80428377820567
 20
252.767373671345
 30
0.0
 41
1.0
  0
SPLINE
  5
A3
330
1F
100
AcDbEntity
  8
Linee visibili 2D
100
AcDbSpline
210
0.0
220
0.0
230
1.0
 70
    12
 71
     2
 72
     6
 73
     3
 74
     0
 42
0.0000000001
 43
0.0000000001
 40
-0.0685765637602722
 40
-0.0685765637602722
 40
-0.0685765637602722
 40
0.0
 40
0.0
 40
0.0
 10
30.80428377820567
 20
252.767373671345
 30
0.0
 41
1.0
 10
30.78788571975356
 20
252.7974866333739
 30
0.0
 41
0.9999999880294391
 10
30.77153105701132
 20
252.8276231843574
 30
0.0
 41
1.0
  0
SPLINE
  5
A4
330
1F
100
AcDbEntity
  8
Linee visibili 2D
100
AcDbSpline
210
0.0
220
0.0
230
1.0
 70
    12
 71
     2
 72
     6
 73
     3
 74
     0
 42
0.0000000001
 43
0.0000000001
 40
0.0
 40
0.0
 40
0.0
 40
0.0311902991173043
 40
0.0311902991173043
 40
0.0311902991173043
 10
30.77153105701132
 20
252.8276231843574
 30
0.0
 41
1.0
 10
30.7641032326381
 20
252.8413358270152
 30
0.0
 41
0.9999999964645571
 10
30.75664110960224
 20
252.85502983677
 30
0.0
 41
1.0
  0
SPLINE
  5
A5
330
1F
100
AcDbEntity
  8
Linee visibili 2D
100
AcDbSpline
210
0.0
220
0.0
230
1.0
 70
    12
 71
     2
 72
     6
 73
     3
 74
     0
 42
0.0000000001
 43
0.0000000001
 40
-0.0607642881806289
 40
-0.0607642881806289
 40
-0.0607642881806289
 40
0.0
 40
0.0
 40
0.0
 10
30.75664110960224
 20
252.85502983677
 30
0.0
 41
1.0
 10
30.74211878351891
 20
252.8817164886619
 30
0.0
 41
0.9999999902628726
 10
30.72764504338693
 20
252.9084295225157
 30
0.0
 41
1.0
  0
SPLINE
  5
A6
330
1F
100
AcDbEntity
  8
Linee visibili 2D
100
AcDbSpline
210
0.0
220
0.0
230
1.0
 70
    12
 71
     2
 72
     6
 73
     3
 74
     0
 42
0.0000000001
 43
0.0000000001
 40
0.0
 40
0.0
 40
0.0
 40
0.0362816672462473
 40
0.0362816672462473
 40
0.0362816672462473
 10
30.72764504338693
 20
252.9084295225157
 30
0.0
 41
1.0
 10
30.71901424501741
 20
252.9243857106871
 30
0.0
 41
0.999999995357542
 10
30.71033951228992
 20
252.9403180575907
 30
0.0
 41
1.0
  0
SPLINE
  5
A7
330
1F
100
AcDbEntity
  8
Linee visibili 2D
100
AcDbSpline
210
0.0
220
0.0
230
1.0
 70
    12
 71
     2
 72
     6
 73
     3
 74
     0
 42
0.0000000001
 43
0.0000000001
 40
-0.0531683492734967
 40
-0.0531683492734967
 40
-0.0531683492734967
 40
0.0
 40
0.0
 40
0.0
 10
30.71033951228992
 20
252.9403180575907
 30
0.0
 41
1.0
 10
30.69763478920524
 20
252.9636699193534
 30
0.0
 41
0.9999999922603242
 10
30.68498982051711
 20
252.9870541921812
 30
0.0
 41
1.0
  0
SPLINE
  5
A8
330
1F
100
AcDbEntity
  8
Linee visibili 2D
100
AcDbSpline
210
0.0
220
0.0
230
1.0
 70
    12
 71
     2
 72
     6
 73
     3
 74
     0
 42
0.0000000001
 43
0.0000000001
 40
0.0
 40
0.0
 40
0.0
 40
1.446554207131186
 40
1.446554207131186
 40
1.446554207131186
 10
30.68498982051711
 20
252.9870541921812
 30
0.0
 41
1.0
 10
30.34033787233109
 20
253.622939177156
 30
0.0
 41
0.9999924556385524
 10
30.0006048858913
 20
254.2614657351834
 30
0.0
 41
0.9999999999947583
  0
SPLINE
  5
A9
330
1F
100
AcDbEntity
  8
Linee visibili 2D
100
AcDbSpline
210
0.0
220
0.0
230
1.0
 70
    12
 71
     2
 72
     6
 73
     3
 74
     0
 42
0.0000000001
 43
0.0000000001
 40
-0.0012922460435974
 40
-0.0012922460435974
 40
-0.0012922460435974
 40
0.0
 40
0.0
 40
0.0
 10
30.00060488589141
 20
254.2614657351834
 30
0.0
 41
0.9999999999124687
 10
30.00030107456495
 20
254.2620356915993
 30
0.0
 41
0.999999889142494
 10
29.99999999977149
 20
254.2627142824992
 30
0.0
 41
1.0
  0
SPLINE
  5
AA
330
1F
100
AcDbEntity
  8
Linee visibili 2D
100
AcDbSpline
210
0.0
220
0.0
230
1.0
 70
    12
 71
     2
 72
     6
 73
     3
 74
     0
 42
0.0000000001
 43
0.0000000001
 40
-40.54601727675256
 40
-40.54601727675256
 40
-40.54601727675256
 40
0.0
 40
0.0
 40
0.0
 10
29.99999999977149
 20
254.2627142824992
 30
0.0
 41
1.0
 10
29.99990826261169
 20
275.7250403781646
 30
0.0
 41
0.9189209782630916
 10
14.44142197652718
 20
290.5088269320327
 30
0.0
 41
1.0
  0
SPLINE
  5
AB
330
1F
100
AcDbEntity
  8
Linee visibili 2D - Tangent
100
AcDbSpline
210
0.0
220
0.0
230
1.0
 70
    12
 71
     2
 72
     6
 73
     3
 74
     0
 42
0.0000000001
 43
0.0000000001
 40
0.0
 40
0.0
 40
0.0
 40
44.42369783564067
 40
44.42369783564067
 40
44.42369783564067
 10
212.9751827333487
 20
271.2527972347436
 30
0.0
 41
1.0
 10
227.1428571429986
 20
253.0592396806442
 30
0.0
 41
0.9457780086416612
 10
227.1428571429656
 20
229.99999999994
 30
0.0
 41
1.0
  0
SPLINE
  5
AC
330
1F
100
AcDbEntity
  8
Linee visibili 2D - Tangent
100
AcDbSpline
210
0.0
220
0.0
230
1.0
 70
    24
 71
     2
 72
     6
 73
     3
 74
     0
 42
0.0000000001
 43
0.0000000001
 40
0.0
 40
0.0
 40
0.0
 40
159.6545015029405
 40
159.6545015029405
 40
159.6545015029405
 10
227.1428571429656
 20
229.99999999994
 30
0.0
 10
227.1428501164828
 20
150.17274924847
 30
0.0
 10
227.14284309
 20
70.3454984970001
 30
0.0
  0
SPLINE
  5
AD
330
1F
100
AcDbEntity
  8
Linee visibili 2D - Tangent
100
AcDbSpline
210
0.0
220
0.0
230
1.0
 70
     8
 71
     3
 72
    17
 73
    13
 74
     0
 42
0.0000000001
 43
0.0000000001
 40
-19.18400588399504
 40
-19.18400588399504
 40
-19.18400588399504
 40
-19.18400588399504
 40
-13.41239345650877
 40
-5.538812594024377
 40
-2.656139100519321
 40
-1.134237424952207
 40
-0.6343754225310021
 40
-0.2787540460939283
 40
-0.1452693845830658
 40
-0.0713465668349168
 40
-0.018529120132298
 40
0.0
 40
0.0
 40
0.0
 40
0.0
 10
227.14284309
 20
70.3454984970001
 30
0.0
 10
227.1844167015659
 20
68.42206262140826
 30
0.0
 10
227.2397815367215
 20
63.87391656468753
 30
0.0
 10
227.2483201212121
 20
58.36458601842878
 30
0.0
 10
227.2465852921096
 20
54.27188176419941
 30
0.0
 10
227.2366169473926
 20
52.63707612556117
 30
0.0
 10
227.2203910646547
 20
51.84475515617123
 30
0.0
 10
227.2059489292822
 20
51.51538990316611
 30
0.0
 10
227.1904608378316
 20
51.3282644396695
 30
0.0
 10
227.1771983804081
 20
51.24257485712632
 30
0.0
 10
227.1662306583248
 20
51.19510531053288
 30
0.0
 10
227.150216128578
 20
51.17574915696558
 30
0.0
 10
227.1427838853722
 20
51.17907363313452
 30
0.0
  0
SPLINE
  5
AE
330
1F
100
AcDbEntity
  8
Linee visibili 2D - Tangent
100
AcDbSpline
210
0.0
220
0.0
230
1.0
 70
    12
 71
     2
 72
     6
 73
     3
 74
     0
 42
0.0000000001
 43
0.0000000001
 40
0.0
 40
0.0
 40
0.0
 40
33.83647537557427
 40
33.83647537557427
 40
33.83647537557427
 10
227.1427838853722
 20
51.17907363313463
 30
0.0
 41
0.9999999999999872
 10
210.0000000002339
 20
59.31066346018414
 30
0.0
 41
0.8451549950953781
 10
210.0000000000252
 20
78.28427124700009
 30
0.0
 41
1.0
  0
SPLINE
  5
AF
330
1F
100
AcDbEntity
  8
Linee visibili 2D - Tangent
100
AcDbSpline
210
0.0
220
0.0
230
1.0
 70
    24
 71
     2
 72
     6
 73
     3
 74
     0
 42
0.0000000001
 43
0.0000000001
 40
0.0
 40
0.0
 40
0.0
 40
175.9767365701786
 40
175.9767365701786
 40
175.9767365701786
 10
210.0000000000252
 20
78.28427124700009
 30
0.0
 10
209.9999999999909
 20
166.2726395320894
 30
0.0
 10
209.9999999999566
 20
254.2610078171788
 30
0.0
  0
SPLINE
  5
B0
330
1F
100
AcDbEntity
  8
Linee visibili 2D - Tangent
100
AcDbSpline
210
0.0
220
0.0
230
1.0
 70
    24
 71
     2
 72
     6
 73
     3
 74
     0
 42
0.0000000001
 43
0.0000000001
 40
0.0
 40
0.0
 40
0.0
 40
159.6545497040157
 40
159.6545497040157
 40
159.6545497040157
 10
12.8571848813408
 20
70.34545029604988
 30
0.0
 10
12.85716386918762
 20
150.172725148055
 30
0.0
 10
12.85714285703443
 20
230.00000000006
 30
0.0
  0
SPLINE
  5
B1
330
1F
100
AcDbEntity
  8
Linee visibili 2D - Tangent
100
AcDbSpline
210
0.0
220
0.0
230
1.0
 70
    12
 71
     2
 72
     6
 73
     3
 74
     0
 42
0.0000000001
 43
0.0000000001
 40
0.0
 40
0.0
 40
0.0
 40
44.42369799359238
 40
44.42369799359238
 40
44.42369799359238
 10
12.85714285703443
 20
230.00000000006
 30
0.0
 41
1.0
 10
12.85714285704314
 20
253.0592397690554
 30
0.0
 41
0.9457780082596055
 10
27.02481736377149
 20
271.2527973594611
 30
0.0
 41
1.0
  0
SPLINE
  5
B2
330
1F
100
AcDbEntity
  8
Linee visibili 2D
100
AcDbSpline
210
0.0
220
0.0
230
1.0
 70
     8
 71
     3
 72
    20
 73
    16
 74
     0
 42
0.0000000001
 43
0.0000000001
 40
-90.00341775499054
 40
-90.00341775499054
 40
-90.00341775499054
 40
-90.00341775499054
 40
-61.77205249339139
 40
-44.46066182292102
 40
-26.3651294959746
 40
-13.74652193713299
 40
-5.715136358139901
 40
-3.152071813949066
 40
-1.373971839348784
 40
-0.7821675831904332
 40
-0.3543075405982801
 40
-0.1855232480185612
 40
-0.089924501743104
 40
-0.0290392163182441
 40
0.0
 40
0.0
 40
0.0
 40
0.0
 10
200.0
 20
374.2592867269999
 30
0.0
 10
209.4103777691521
 20
374.2977929646368
 30
0.0
 10
224.5912571311608
 20
374.336136574542
 30
0.0
 10
245.8040047486079
 20
374.3615080235656
 30
0.0
 10
261.8125159651795
 20
374.3685521043848
 30
0.0
 10
274.7276896418932
 20
374.3646644111493
 30
0.0
 10
282.4653710326692
 20
374.3519533815353
 30
0.0
 10
286.5895122829627
 20
374.332609845236
 30
0.0
 10
288.2337792176672
 20
374.3175607587227
 30
0.0
 10
289.1662411844889
 20
374.3024247346768
 30
0.0
 10
289.5622823242709
 20
374.2921568934344
 30
0.0
 10
289.7927985505041
 20
374.2828393570937
 30
0.0
 10
289.9011730193304
 20
374.2761538391924
 30
0.0
 10
289.9623535141275
 20
374.2699271885288
 30
0.0
 10
289.9927393135188
 20
374.2654989013149
 30
0.0
 10
289.999999999942
 20
374.259286726764
 30
0.0
  0
SPLINE
  5
B3
330
1F
100
AcDbEntity
  8
Linee visibili 2D
100
AcDbSpline
210
0.0
220
0.0
230
1.0
 70
    24
 71
     2
 72
     6
 73
     3
 74
     0
 42
0.0000000001
 43
0.0000000001
 40
0.0
 40
0.0
 40
0.0
 40
10.740713273236
 40
10.740713273236
 40
10.740713273236
 10
289.999999999942
 20
374.259286726764
 30
0.0
 10
289.999999999971
 20
379.6296433633821
 30
0.0
 10
290.0
 20
385.0
 30
0.0
  0
SPLINE
  5
B4
330
1F
100
AcDbEntity
  8
Linee visibili 2D
100
AcDbSpline
210
0.0
220
0.0
230
1.0
 70
    12
 71
     2
 72
     6
 73
     3
 74
     0
 42
0.0000000001
 43
0.0000000001
 40
0.0
 40
0.0
 40
0.0
 40
7.801089365779902
 40
7.801089365779902
 40
7.801089365779902
 10
290.0
 20
385.0
 30
0.0
 41
1.0
 10
289.9999999999996
 20
389.947385531019
 30
0.0
 41
0.7108369209408365
 10
294.9471087182731
 20
389.9997202434054
 30
0.0
 41
1.0
  0
SPLINE
  5
B5
330
1F
100
AcDbEntity
  8
Linee visibili 2D - Tangent
100
AcDbSpline
210
0.0
220
0.0
230
1.0
 70
    12
 71
     2
 72
     6
 73
     3
 74
     0
 42
0.0000000001
 43
0.0000000001
 40
0.0
 40
0.0
 40
0.0
 40
5.639407516064849
 40
5.639407516064849
 40
5.639407516064849
 10
229.9999999999109
 20
46.6615135429979
 30
0.0
 41
1.0
 10
229.9999880482972
 20
49.82377797489925
 30
0.0
 41
0.8451552648359726
 10
227.1428214289388
 20
51.1790341601054
 30
0.0
 41
1.0
  0
SPLINE
  5
B6
330
1F
100
AcDbEntity
  8
Linee visibili 2D - Tangent
100
AcDbSpline
210
0.0
220
0.0
230
1.0
 70
    24
 71
     2
 72
     6
 73
     3
 74
     0
 42
0.0000000001
 43
0.0000000001
 40
0.0
 40
0.0
 40
0.0
 40
67.14278571485374
 40
67.14278571485374
 40
67.14278571485374
 10
227.1428214289388
 20
51.1790341601054
 30
0.0
 10
193.5714107144694
 20
51.17903416002899
 30
0.0
 10
160.0
 20
51.17903415995261
 30
0.0
  0
SPLINE
  5
B7
330
1F
100
AcDbEntity
  8
Linee visibili 2D - Tangent
100
AcDbSpline
210
0.0
220
0.0
230
1.0
 70
    24
 71
     2
 72
     6
 73
     3
 74
     0
 42
0.0000000001
 43
0.0000000001
 40
0.0
 40
0.0
 40
0.0
 40
79.99999999984744
 40
79.99999999984744
 40
79.99999999984744
 10
160.0
 20
51.17903415995261
 30
0.0
 10
120.0000000000763
 20
51.17903416002878
 30
0.0
 10
80.00000000015255
 20
51.17903416010495
 30
0.0
  0
SPLINE
  5
B8
330
1F
100
AcDbEntity
  8
Linee visibili 2D - Tangent
100
AcDbSpline
210
0.0
220
0.0
230
1.0
 70
    24
 71
     2
 72
     6
 73
     3
 74
     0
 42
0.0000000001
 43
0.0000000001
 40
0.0
 40
0.0
 40
0.0
 40
67.1428144042991
 40
67.1428144042991
 40
67.1428144042991
 10
80.00000000015255
 20
51.17903416010495
 30
0.0
 10
46.42858211327189
 20
51.17903416011768
 30
0.0
 10
12.85716422639121
 20
51.1790341601304
 30
0.0
  0
SPLINE
  5
B9
330
1F
100
AcDbEntity
  8
Linee visibili 2D - Tangent
100
AcDbSpline
210
0.0
220
0.0
230
1.0
 70
    12
 71
     2
 72
     6
 73
     3
 74
     0
 42
0.0000000001
 43
0.0000000001
 40
0.0
 40
0.0
 40
0.0
 40
5.639388619052172
 40
5.639388619052172
 40
5.639388619052172
 10
12.85716422639121
 20
51.1790341601304
 30
0.0
 41
1.0
 10
10.00002390317136
 20
49.82378364395485
 30
0.0
 41
0.845156274924072
 10
10.00000000019463
 20
46.66153243999543
 30
0.0
 41
1.0
  0
SPLINE
  5
BA
330
1F
100
AcDbEntity
  8
Linee visibili 2D - Tangent
100
AcDbSpline
210
0.0
220
0.0
230
1.0
 70
    12
 71
     2
 72
     6
 73
     3
 74
     0
 42
0.0000000001
 43
0.0000000001
 40
-0.1054802580156051
 40
-0.1054802580156051
 40
-0.1054802580156051
 40
0.0
 40
0.0
 40
0.0
 10
264.4967715211492
 20
350.2110940939858
 30
0.0
 41
1.0
 10
264.5091032392868
 20
350.1581734253309
 30
0.0
 41
0.9564568218560319
 10
264.4897867012039
 20
350.1073842552294
 30
0.0
 41
1.0
  0
SPLINE
  5
BB
330
1F
100
AcDbEntity
  8
Linee visibili 2D - Tangent
100
AcDbSpline
210
0.0
220
0.0
230
1.0
 70
    12
 71
     2
 72
     6
 73
     3
 74
     0
 42
0.0000000001
 43
0.0000000001
 40
0.0
 40
0.0
 40
0.0
 40
30.22562718389137
 40
30.22562718389137
 40
30.22562718389137
 10
264.4897867012039
 20
350.1073842552294
 30
0.0
 41
1.0
 10
269.9897882339125
 20
365.7017174461456
 30
0.0
 41
0.8757767517248831
 10
286.111686857641
 20
369.378350320846
 30
0.0
 41
1.0
  0
SPLINE
  5
BC
330
1F
100
AcDbEntity
  8
Linee visibili 2D - Tangent
100
AcDbSpline
210
0.0
220
0.0
230
1.0
 70
    12
 71
     3
 72
    10
 73
     6
 74
     0
 42
0.0000000001
 43
0.0000000001
 40
2.0
 40
2.0
 40
2.0
 40
2.0
 40
2.5
 40
2.5
 40
2.630033438605116
 40
2.630033438605116
 40
2.630033438605116
 40
2.630033438605116
 10
286.111686857641
 20
369.378350320846
 30
0.0
 41
1.0
 10
287.2057496449782
 20
369.6278486841302
 30
0.0
 41
1.0
 10
288.2091226277357
 20
370.2581126458081
 30
0.0
 41
1.0
 10
289.0908341374636
 20
371.3635270855582
 30
0.0
 41
1.0
 10
289.2519579341736
 20
371.6079832604055
 30
0.0
 41
1.0
 10
289.3907667689748
 20
371.8645726066608
 30
0.0
 41
1.0
  0
SPLINE
  5
BD
330
1F
100
AcDbEntity
  8
Linee visibili 2D - Tangent
100
AcDbSpline
210
0.0
220
0.0
230
1.0
 70
    24
 71
     2
 72
     6
 73
     3
 74
     0
 42
0.0000000001
 43
0.0000000001
 40
0.0
 40
0.0
 40
0.0
 40
90.00000000000023
 40
90.00000000000023
 40
90.00000000000023
 10
290.0000000000002
 20
385.0
 30
0.0
 10
245.0000000000001
 20
385.0
 30
0.0
 10
200.0
 20
385.0
 30
0.0
  0
SPLINE
  5
BE
330
1F
100
AcDbEntity
  8
Linee visibili 2D - Tangent
100
AcDbSpline
210
0.0
220
0.0
230
1.0
 70
    24
 71
     2
 72
     6
 73
     3
 74
     0
 42
0.0000000001
 43
0.0000000001
 40
0.0
 40
0.0
 40
0.0
 40
160.0
 40
160.0
 40
160.0
 10
200.0
 20
385.0
 30
0.0
 10
120.0
 20
385.0
 30
0.0
 10
40.0
 20
385.0
 30
0.0
  0
SPLINE
  5
BF
330
1F
100
AcDbEntity
  8
Linee visibili 2D - Tangent
100
AcDbSpline
210
0.0
220
0.0
230
1.0
 70
    24
 71
     2
 72
     6
 73
     3
 74
     0
 42
0.0000000001
 43
0.0000000001
 40
0.0
 40
0.0
 40
0.0
 40
90.0
 40
90.0
 40
90.0
 10
40.0
 20
385.0
 30
0.0
 10
-5.0
 20
385.0
 30
0.0
 10
-50.0
 20
385.0
 30
0.0
  0
SPLINE
  5
C0
330
1F
100
AcDbEntity
  8
Linee visibili 2D
100
AcDbSpline
210
0.0
220
0.0
230
1.0
 70
    24
 71
     2
 72
     6
 73
     3
 74
     0
 42
0.0000000001
 43
0.0000000001
 40
0.0
 40
0.0
 40
0.0
 40
20.0
 40
20.0
 40
20.0
 10
300.0
 20
395.0
 30
0.0
 10
300.0
 20
405.0
 30
0.0
 10
300.0
 20
415.0
 30
0.0
  0
SPLINE
  5
C1
330
1F
100
AcDbEntity
  8
Linee visibili 2D
100
AcDbSpline
210
0.0
220
0.0
230
1.0
 70
    12
 71
     2
 72
     6
 73
     3
 74
     0
 42
0.0000000001
 43
0.0000000001
 40
-7.853981633974969
 40
-7.853981633974969
 40
-7.853981633974969
 40
0.0
 40
0.0
 40
0.0
 10
300.0
 20
415.0
 30
0.0
 41
1.0
 10
300.0000000000008
 20
420.000000000001
 30
0.0
 41
0.7071067811863868
 10
295.0
 20
420.0
 30
0.0
 41
1.0
  0
SPLINE
  5
C2
330
1F
100
AcDbEntity
  8
Linee visibili 2D
100
AcDbSpline
210
0.0
220
0.0
230
1.0
 70
    24
 71
     2
 72
     6
 73
     3
 74
     0
 42
0.0000000001
 43
0.0000000001
 40
0.0
 40
0.0
 40
0.0
 40
95.0
 40
95.0
 40
95.0
 10
295.0
 20
420.0
 30
0.0
 10
247.5
 20
420.0
 30
0.0
 10
200.0
 20
420.0
 30
0.0
  0
SPLINE
  5
C3
330
1F
100
AcDbEntity
  8
Linee visibili 2D
100
AcDbSpline
210
0.0
220
0.0
230
1.0
 70
    24
 71
     2
 72
     6
 73
     3
 74
     0
 42
0.0000000001
 43
0.0000000001
 40
0.0
 40
0.0
 40
0.0
 40
160.0
 40
160.0
 40
160.0
 10
200.0
 20
420.0
 30
0.0
 10
120.0
 20
420.0
 30
0.0
 10
40.0
 20
420.0
 30
0.0
  0
SPLINE
  5
C4
330
1F
100
AcDbEntity
  8
Linee visibili 2D
100
AcDbSpline
210
0.0
220
0.0
230
1.0
 70
    24
 71
     2
 72
     6
 73
     3
 74
     0
 42
0.0000000001
 43
0.0000000001
 40
0.0
 40
0.0
 40
0.0
 40
95.0
 40
95.0
 40
95.0
 10
40.0
 20
420.0
 30
0.0
 10
-7.5
 20
420.0
 30
0.0
 10
-55.0
 20
420.0
 30
0.0
  0
SPLINE
  5
C5
330
1F
100
AcDbEntity
  8
Linee visibili 2D
100
AcDbSpline
210
0.0
220
0.0
230
1.0
 70
    12
 71
     2
 72
     6
 73
     3
 74
     0
 42
0.0000000001
 43
0.0000000001
 40
-7.853981633974255
 40
-7.853981633974255
 40
-7.853981633974255
 40
0.0
 40
0.0
 40
0.0
 10
-55.0
 20
420.0
 30
0.0
 41
1.0
 10
-59.99999999999976
 20
419.9999999999998
 30
0.0
 41
0.7071067811865638
 10
-60.0
 20
415.0
 30
0.0
 41
1.0
  0
SPLINE
  5
C6
330
1F
100
AcDbEntity
  8
Linee visibili 2D - Tangent
100
AcDbSpline
210
0.0
220
0.0
230
1.0
 70
    12
 71
     2
 72
     6
 73
     3
 74
     0
 42
0.0000000001
 43
0.0000000001
 40
-6.738859282733542
 40
-6.738859282733542
 40
-6.738859282733542
 40
0.0
 40
0.0
 40
0.0
 10
-49.9999999773438
 20
374.2588107438618
 30
0.0
 41
1.0
 10
-49.9996065757713
 20
370.2658057287111
 30
0.0
 41
0.7813995155442152
 10
-46.10515454349115
 20
369.3829990807373
 30
0.0
 41
1.0
  0
SPLINE
  5
C7
330
1F
100
AcDbEntity
  8
Linee visibili 2D - Tangent
100
AcDbSpline
210
0.0
220
0.0
230
1.0
 70
     8
 71
     3
 72
    18
 73
    14
 74
     0
 42
0.0000000001
 43
0.0000000001
 40
0.0
 40
0.0
 40
0.0
 40
0.0
 40
0.0362741130587702
 40
0.1016891748794935
 40
0.3694842578099793
 40
0.7914542258328154
 40
1.368470698444731
 40
3.087151293585314
 40
5.550678336497815
 40
13.24151670871394
 40
25.30181161242331
 40
58.71599981515938
 40
86.08517762385686
 40
86.08517762385686
 40
86.08517762385686
 40
86.08517762385686
 10
-46.10515454349115
 20
369.3829990807373
 30
0.0
 10
-46.0935495410199
 20
369.3871299911139
 30
0.0
 10
-46.05975543834778
 20
369.391094859873
 30
0.0
 10
-45.93688196300854
 20
369.3992516930673
 30
0.0
 10
-45.68525424540438
 20
369.4073132451952
 30
0.0
 10
-45.26308526854496
 20
369.4159944632129
 30
0.0
 10
-44.357265404396
 20
369.4276422121093
 30
0.0
 10
-42.77089737940742
 20
369.439475258675
 30
0.0
 10
-38.81324080173818
 20
369.4544709755407
 30
0.0
 10
-31.40835776935205
 20
369.4648282867602
 30
0.0
 10
-13.68658445963024
 20
369.468474916994
 30
0.0
 10
10.59463685348328
 20
369.4535274851554
 30
0.0
 10
30.85572390332527
 20
369.4128784451248
 30
0.0
 10
39.97873554900003
 20
369.3829433129999
 30
0.0
  0
SPLINE
  5
C8
330
1F
100
AcDbEntity
  8
Linee visibili 2D - Tangent
100
AcDbSpline
210
0.0
220
0.0
230
1.0
 70
    12
 71
     2
 72
     6
 73
     3
 74
     0
 42
0.0000000001
 43
0.0000000001
 40
0.0
 40
0.0
 40
0.0
 40
0.1386833173472527
 40
0.1386833173472527
 40
0.1386833173472527
 10
39.97873554900003
 20
369.3829433129999
 30
0.0
 41
1.0
 10
40.04807683590122
 20
369.3827160928102
 30
0.0
 41
0.9999999889986453
 10
40.11741818715972
 20
369.3825094438462
 30
0.0
 41
1.0
  0
SPLINE
  5
C9
330
1F
100
AcDbEntity
  8
Linee visibili 2D - Tangent
100
AcDbSpline
210
0.0
220
0.0
230
1.0
 70
    12
 71
     2
 72
     6
 73
     3
 74
     0
 42
0.0000000001
 43
0.0000000001
 40
0.0
 40
0.0
 40
0.0
 40
2.768321709389001
 40
2.768321709389001
 40
2.768321709389001
 10
40.11741818715972
 20
369.3825094438462
 30
0.0
 41
1.0
 10
41.50157382779947
 20
369.3783470295782
 30
0.0
 41
0.9999988680780967
 10
42.88573572700011
 20
369.3783498502503
 30
0.0
 41
1.0
  0
SPLINE
  5
CA
330
1F
100
AcDbEntity
  8
Linee visibili 2D - Tangent
100
AcDbSpline
210
0.0
220
0.0
230
1.0
 70
    24
 71
     2
 72
     6
 73
     3
 74
     0
 42
0.0000000001
 43
0.0000000001
 40
0.0
 40
0.0
 40
0.0
 40
154.2285294955494
 40
154.2285294955494
 40
154.2285294955494
 10
42.88573572700011
 20
369.3783498502503
 30
0.0
 10
120.0000004747748
 20
369.3783477600913
 30
0.0
 10
197.1142652225494
 20
369.3783456699323
 30
0.0
  0
SPLINE
  5
CB
330
1F
100
AcDbEntity
  8
Linee visibili 2D - Tangent
100
AcDbSpline
210
0.0
220
0.0
230
1.0
 70
    12
 71
     2
 72
     6
 73
     3
 74
     0
 42
0.0000000001
 43
0.0000000001
 40
0.0
 40
0.0
 40
0.0
 40
2.768320703985821
 40
2.768320703985821
 40
2.768320703985821
 10
197.1142652225494
 20
369.3783456699323
 30
0.0
 41
1.0
 10
198.4984266190517
 20
369.3783449392885
 30
0.0
 41
0.9999988680772634
 10
199.8825817507011
 20
369.3825094435961
 30
0.0
 41
1.0
  0
SPLINE
  5
CC
330
1F
100
AcDbEntity
  8
Linee visibili 2D - Tangent
100
AcDbSpline
210
0.0
220
0.0
230
1.0
 70
    12
 71
     2
 72
     6
 73
     3
 74
     0
 42
0.0000000001
 43
0.0000000001
 40
0.0
 40
0.0
 40
0.0
 40
2.748759582547511
 40
2.748759582547511
 40
2.748759582547511
 10
199.8630121149934
 20
374.2587131481741
 30
0.0
 41
1.0
 10
198.4886415323497
 20
374.2532012374808
 30
0.0
 41
0.9999979873733575
 10
197.114259897
 20
374.2532041659999
 30
0.0
 41
1.0
  0
SPLINE
  5
CD
330
1F
100
AcDbEntity
  8
Linee visibili 2D - Tangent
100
AcDbSpline
210
0.0
220
0.0
230
1.0
 70
    24
 71
     2
 72
     6
 73
     3
 74
     0
 42
0.0000000001
 43
0.0000000001
 40
0.0
 40
0.0
 40
0.0
 40
154.2285197940002
 40
154.2285197940002
 40
154.2285197940002
 10
197.114259897
 20
374.2532041659999
 30
0.0
 10
120.0
 20
374.2532009053333
 30
0.0
 10
42.88574010299998
 20
374.2531976446667
 30
0.0
  0
SPLINE
  5
CE
330
1F
100
AcDbEntity
  8
Linee visibili 2D - Tangent
100
AcDbSpline
210
0.0
220
0.0
230
1.0
 70
    12
 71
     2
 72
     6
 73
     3
 74
     0
 42
0.0000000001
 43
0.0000000001
 40
0.0
 40
0.0
 40
0.0
 40
2.748759595624331
 40
2.748759595624331
 40
2.748759595624331
 10
42.88574010299998
 20
374.2531976446667
 30
0.0
 41
1.0
 10
41.51135846111579
 20
374.2531979819905
 30
0.0
 41
0.9999979873810408
 10
40.13698788500004
 20
374.258713148
 30
0.0
 41
1.0
  0
SPLINE
  5
CF
330
1F
100
AcDbEntity
  8
Linee visibili 2D - Tangent
100
AcDbSpline
210
0.0
220
0.0
230
1.0
 70
    12
 71
     2
 72
     6
 73
     3
 74
     0
 42
0.0000000001
 43
0.0000000001
 40
0.0
 40
0.0
 40
0.0
 40
0.136989086493369
 40
0.136989086493369
 40
0.136989086493369
 10
40.13698788500004
 20
374.258713148
 30
0.0
 41
1.0
 10
40.06849389267862
 20
374.2589880386302
 30
0.0
 41
0.9999999849107215
 10
39.99999999999955
 20
374.2592867267638
 30
0.0
 41
1.0
  0
SPLINE
  5
D0
330
1F
100
AcDbEntity
  8
Linee visibili 2D - Tangent
100
AcDbSpline
210
0.0
220
0.0
230
1.0
 70
     8
 71
     3
 72
    21
 73
    17
 74
     0
 42
0.0000000001
 43
0.0000000001
 40
0.0
 40
0.0
 40
0.0
 40
0.0
 40
13.24833540826443
 40
28.23136526160906
 40
45.54275593208721
 40
63.63828825904415
 40
76.25689581789434
 40
84.28828139689555
 40
86.85134594108964
 40
88.62944591569261
 40
89.22125017185235
 40
89.64911021444278
 40
89.81789450699354
 40
89.91349325323618
 40
89.97437853866021
 40
90.0034177556175
 40
90.0034177556175
 40
90.0034177556175
 40
90.0034177556175
 10
39.99999999999955
 20
374.2592867267638
 30
0.0
 10
35.5839255926528
 20
374.2774861190085
 30
0.0
 10
26.17352072554877
 20
374.3088276383908
 30
0.0
 10
10.99263509062098
 20
374.3414802170764
 30
0.0
 10
-5.804005506702424
 20
374.3614734741482
 30
0.0
 10
-21.81251507863431
 20
374.3685280662297
 30
0.0
 10
-34.72769058203426
 20
374.3647053827071
 30
0.0
 10
-42.46537013119904
 20
374.3519144875681
 30
0.0
 10
-46.58951331635785
 20
374.3325817847413
 30
0.0
 10
-48.23377598397929
 20
374.3175713343021
 30
0.0
 10
-49.16624578548543
 20
374.3024082793611
 30
0.0
 10
-49.5622740063634
 20
374.2921705189084
 30
0.0
 10
-49.79277692349433
 20
374.2827716528708
 30
0.0
 10
-49.90123951666305
 20
374.276266127277
 30
0.0
 10
-49.96221674408936
 20
374.2697417277875
 30
0.0
 10
-49.99279186438548
 20
374.2655707777153
 30
0.0
 10
-50.0
 20
374.2592867269999
 30
0.0
  0
SPLINE
  5
D1
330
1F
100
AcDbEntity
  8
Linee visibili 2D - Tangent
100
AcDbSpline
210
0.0
220
0.0
230
1.0
 70
    24
 71
     2
 72
     6
 73
     3
 74
     0
 42
0.0000000001
 43
0.0000000001
 40
-10.74071327299998
 40
-10.74071327299998
 40
-10.74071327299998
 40
0.0
 40
0.0
 40
0.0
 10
-50.0
 20
374.2592867269999
 30
0.0
 10
-50.0
 20
379.6296433635
 30
0.0
 10
-50.0
 20
385.0
 30
0.0
  0
SPLINE
  5
D2
330
1F
100
AcDbEntity
  8
Linee visibili 2D - Tangent
100
AcDbSpline
210
0.0
220
0.0
230
1.0
 70
    12
 71
     2
 72
     6
 73
     3
 74
     0
 42
0.0000000001
 43
0.0000000001
 40
-7.801089365779503
 40
-7.801089365779503
 40
-7.801089365779503
 40
0.0
 40
0.0
 40
0.0
 10
-50.0
 20
385.0
 30
0.0
 41
1.0
 10
-50.00000000000014
 20
389.9473855310185
 30
0.0
 41
0.7108369209409161
 10
-54.94710871827283
 20
389.9997202434054
 30
0.0
 41
1.0
  0
SPLINE
  5
D3
330
1F
100
AcDbEntity
  8
Linee visibili 2D
100
AcDbSpline
210
0.0
220
0.0
230
1.0
 70
    24
 71
     2
 72
     6
 73
     3
 74
     0
 42
0.0000000001
 43
0.0000000001
 40
-100.0000000000002
 40
-100.0000000000002
 40
-100.0000000000002
 40
0.0
 40
0.0
 40
0.0
 10
-60.00000000000023
 20
395.0
 30
0.0
 10
-10.00000000000011
 20
395.0
 30
0.0
 10
40.0
 20
395.0
 30
0.0
  0
SPLINE
  5
D4
330
1F
100
AcDbEntity
  8
Linee visibili 2D
100
AcDbSpline
210
0.0
220
0.0
230
1.0
 70
    24
 71
     2
 72
     6
 73
     3
 74
     0
 42
0.0000000001
 43
0.0000000001
 40
0.0
 40
0.0
 40
0.0
 40
160.0000000000005
 40
160.0000000000005
 40
160.0000000000005
 10
40.0
 20
395.0
 30
0.0
 10
120.0000000000002
 20
395.0
 30
0.0
 10
200.0000000000005
 20
395.0
 30
0.0
  0
SPLINE
  5
D5
330
1F
100
AcDbEntity
  8
Linee visibili 2D
100
AcDbSpline
210
0.0
220
0.0
230
1.0
 70
    24
 71
     2
 72
     6
 73
     3
 74
     0
 42
0.0000000001
 43
0.0000000001
 40
-99.99999999999957
 40
-99.99999999999957
 40
-99.99999999999957
 40
0.0
 40
0.0
 40
0.0
 10
200.0000000000005
 20
395.0
 30
0.0
 10
250.0000000000002
 20
395.0
 30
0.0
 10
300.0
 20
395.0
 30
0.0
  0
SPLINE
  5
D6
330
1F
100
AcDbEntity
  8
Linee visibili 2D
100
AcDbSpline
210
0.0
220
0.0
230
1.0
 70
    12
 71
     2
 72
     6
 73
     3
 74
     0
 42
0.0000000001
 43
0.0000000001
 40
0.0
 40
0.0
 40
0.0
 40
7.853981633974158
 40
7.853981633974158
 40
7.853981633974158
 10
300.0
 20
395.0
 30
0.0
 41
1.0
 10
299.9999999999997
 20
390.0000000000005
 30
0.0
 41
0.7071067811865958
 10
295.0
 20
390.0
 30
0.0
 41
1.0
  0
SPLINE
  5
D7
330
1F
100
AcDbEntity
  8
Linee visibili 2D
100
AcDbSpline
210
0.0
220
0.0
230
1.0
 70
    24
 71
     2
 72
     6
 73
     3
 74
     0
 42
0.0000000001
 43
0.0000000001
 40
-94.99999999999932
 40
-94.99999999999932
 40
-94.99999999999932
 40
0.0
 40
0.0
 40
0.0
 10
295.0
 20
390.0
 30
0.0
 10
247.5000000000003
 20
390.0
 30
0.0
 10
200.0000000000007
 20
390.0
 30
0.0
  0
SPLINE
  5
D8
330
1F
100
AcDbEntity
  8
Linee visibili 2D
100
AcDbSpline
210
0.0
220
0.0
230
1.0
 70
    24
 71
     2
 72
     6
 73
     3
 74
     0
 42
0.0000000001
 43
0.0000000001
 40
-160.0000000000006
 40
-160.0000000000006
 40
-160.0000000000006
 40
0.0
 40
0.0
 40
0.0
 10
200.0000000000007
 20
390.0
 30
0.0
 10
120.0000000000003
 20
390.0
 30
0.0
 10
40.0
 20
390.0
 30
0.0
  0
SPLINE
  5
D9
330
1F
100
AcDbEntity
  8
Linee visibili 2D
100
AcDbSpline
210
0.0
220
0.0
230
1.0
 70
    24
 71
     2
 72
     6
 73
     3
 74
     0
 42
0.0000000001
 43
0.0000000001
 40
-94.99999999999976
 40
-94.99999999999976
 40
-94.99999999999976
 40
0.0
 40
0.0
 40
0.0
 10
40.0
 20
390.0
 30
0.0
 10
-7.499999999999886
 20
390.0
 30
0.0
 10
-54.99999999999977
 20
390.0
 30
0.0
  0
SPLINE
  5
DA
330
1F
100
AcDbEntity
  8
Linee visibili 2D
100
AcDbSpline
210
0.0
220
0.0
230
1.0
 70
    12
 71
     2
 72
     6
 73
     3
 74
     0
 42
0.0000000001
 43
0.0000000001
 40
0.0
 40
0.0
 40
0.0
 40
7.853981633974677
 40
7.853981633974677
 40
7.853981633974677
 10
-54.99999999999977
 20
390.0
 30
0.0
 41
1.0
 10
-60.00000000000047
 20
389.9999999999996
 30
0.0
 41
0.7071067811864833
 10
-60.0
 20
395.0
 30
0.0
 41
1.0
  0
SPLINE
  5
DB
330
1F
100
AcDbEntity
  8
Linee visibili 2D
100
AcDbSpline
210
0.0
220
0.0
230
1.0
 70
    24
 71
     2
 72
     6
 73
     3
 74
     0
 42
0.0000000001
 43
0.0000000001
 40
0.0
 40
0.0
 40
0.0
 40
20.0
 40
20.0
 40
20.0
 10
-60.0
 20
395.0
 30
0.0
 10
-60.0
 20
405.0
 30
0.0
 10
-60.0
 20
415.0
 30
0.0
  0
SPLINE
  5
DC
330
1F
100
AcDbEntity
  8
Linee visibili 2D
100
AcDbSpline
210
0.0
220
0.0
230
1.0
 70
    24
 71
     2
 72
     6
 73
     3
 74
     0
 42
0.0000000001
 43
0.0000000001
 40
0.0
 40
0.0
 40
0.0
 40
100.0
 40
100.0
 40
100.0
 10
-60.0
 20
415.0
 30
0.0
 10
-10.0
 20
415.0
 30
0.0
 10
40.0
 20
415.0
 30
0.0
  0
SPLINE
  5
DD
330
1F
100
AcDbEntity
  8
Linee visibili 2D
100
AcDbSpline
210
0.0
220
0.0
230
1.0
 70
    24
 71
     2
 72
     6
 73
     3
 74
     0
 42
0.0000000001
 43
0.0000000001
 40
0.0
 40
0.0
 40
0.0
 40
160.0000000000002
 40
160.0000000000002
 40
160.0000000000002
 10
40.0
 20
415.0
 30
0.0
 10
120.0000000000001
 20
415.0
 30
0.0
 10
200.0000000000002
 20
415.0
 30
0.0
  0
SPLINE
  5
DE
330
1F
100
AcDbEntity
  8
Linee visibili 2D
100
AcDbSpline
210
0.0
220
0.0
230
1.0
 70
    24
 71
     2
 72
     6
 73
     3
 74
     0
 42
0.0000000001
 43
0.0000000001
 40
0.0
 40
0.0
 40
0.0
 40
99.99999999999957
 40
99.99999999999957
 40
99.99999999999957
 10
200.0000000000002
 20
415.0
 30
0.0
 10
250.0
 20
415.0
 30
0.0
 10
299.9999999999998
 20
415.0
 30
0.0
  0
SPLINE
  5
DF
330
1F
100
AcDbEntity
  8
Linee visibili 2D
100
AcDbSpline
210
0.0
220
0.0
230
1.0
 70
    12
 71
     2
 72
     6
 73
     3
 74
     0
 42
0.0000000001
 43
0.0000000001
 40
0.0
 40
0.0
 40
0.0
 40
7.77942266426486
 40
7.77942266426486
 40
7.77942266426486
 10
5.074556206565148
 20
30.00055589369527
 30
0.0
 41
1.0
 10
9.999999999999751
 20
30.07400854104613
 30
0.0
 41
0.7123591935650037
 10
10.0
 20
35.0
 30
0.0
 41
1.0
  0
SPLINE
  5
E0
330
1F
100
AcDbEntity
  8
Linee visibili 2D
100
AcDbSpline
210
0.0
220
0.0
230
1.0
 70
    24
 71
     2
 72
     6
 73
     3
 74
     0
 42
0.0000000001
 43
0.0000000001
 40
-11.66149464594446
 40
-11.66149464594446
 40
-11.66149464594446
 40
0.0
 40
0.0
 40
0.0
 10
10.0
 20
35.0
 30
0.0
 10
10.00000000002592
 20
40.83074732297222
 30
0.0
 10
10.00000000005184
 20
46.66149464594446
 30
0.0
  0
SPLINE
  5
E1
330
1F
100
AcDbEntity
  8
Linee visibili 2D
100
AcDbSpline
210
0.0
220
0.0
230
1.0
 70
    24
 71
     2
 72
     6
 73
     3
 74
     0
 42
0.0000000001
 43
0.0000000001
 40
0.0
 40
0.0
 40
0.0
 40
69.99999999989268
 40
69.99999999989268
 40
69.99999999989268
 10
10.00000000005184
 20
46.66149464594446
 30
0.0
 10
44.99999999999817
 20
46.66149464594446
 30
0.0
 10
79.99999999994452
 20
46.66149464594446
 30
0.0
  0
SPLINE
  5
E2
330
1F
100
AcDbEntity
  8
Linee visibili 2D
100
AcDbSpline
210
0.0
220
0.0
230
1.0
 70
    24
 71
     2
 72
     6
 73
     3
 74
     0
 42
0.0000000001
 43
0.0000000001
 40
0.0
 40
0.0
 40
0.0
 40
80.00000000011118
 40
80.00000000011118
 40
80.00000000011118
 10
79.99999999994452
 20
46.66149464594446
 30
0.0
 10
120.0000000000001
 20
46.66149464594446
 30
0.0
 10
160.0000000000557
 20
46.66149464594446
 30
0.0
  0
SPLINE
  5
E3
330
1F
100
AcDbEntity
  8
Linee visibili 2D
100
AcDbSpline
210
0.0
220
0.0
230
1.0
 70
    24
 71
     2
 72
     6
 73
     3
 74
     0
 42
0.0000000001
 43
0.0000000001
 40
0.0
 40
0.0
 40
0.0
 40
69.99999999989086
 40
69.99999999989086
 40
69.99999999989086
 10
160.0000000000557
 20
46.66149464594446
 30
0.0
 10
195.0000000000011
 20
46.66149464594923
 30
0.0
 10
229.9999999999466
 20
46.66149464595401
 30
0.0
  0
SPLINE
  5
E4
330
1F
100
AcDbEntity
  8
Linee visibili 2D
100
AcDbSpline
210
0.0
220
0.0
230
1.0
 70
    24
 71
     2
 72
     6
 73
     3
 74
     0
 42
0.0000000001
 43
0.0000000001
 40
0.0
 40
0.0
 40
0.0
 40
11.66149464595401
 40
11.66149464595401
 40
11.66149464595401
 10
229.9999999999466
 20
46.66149464595401
 30
0.0
 10
229.9999999999733
 20
40.83074732297699
 30
0.0
 10
230.0
 20
35.0
 30
0.0
  0
SPLINE
  5
E5
330
1F
100
AcDbEntity
  8
Linee visibili 2D
100
AcDbSpline
210
0.0
220
0.0
230
1.0
 70
    24
 71
     2
 72
     6
 73
     3
 74
     0
 42
0.0000000001
 43
0.0000000001
 40
-69.99999999999977
 40
-69.99999999999977
 40
-69.99999999999977
 40
0.0
 40
0.0
 40
0.0
 10
230.0
 20
35.0
 30
0.0
 10
195.0000000000001
 20
35.0
 30
0.0
 10
160.0000000000002
 20
35.0
 30
0.0
  0
SPLINE
  5
E6
330
1F
100
AcDbEntity
  8
Linee visibili 2D
100
AcDbSpline
210
0.0
220
0.0
230
1.0
 70
    24
 71
     2
 72
     6
 73
     3
 74
     0
 42
0.0000000001
 43
0.0000000001
 40
-80.00000000000024
 40
-80.00000000000024
 40
-80.00000000000024
 40
0.0
 40
0.0
 40
0.0
 10
160.0000000000002
 20
35.0
 30
0.0
 10
120.0000000000001
 20
35.0
 30
0.0
 10
80.0
 20
35.0
 30
0.0
  0
SPLINE
  5
E7
330
1F
100
AcDbEntity
  8
Linee visibili 2D
100
AcDbSpline
210
0.0
220
0.0
230
1.0
 70
    24
 71
     2
 72
     6
 73
     3
 74
     0
 42
0.0000000001
 43
0.0000000001
 40
-70.0
 40
-70.0
 40
-70.0
 40
0.0
 40
0.0
 40
0.0
 10
80.0
 20
35.0
 30
0.0
 10
45.0
 20
35.0
 30
0.0
 10
10.0
 20
35.0
 30
0.0
  0
SPLINE
  5
E8
330
1F
100
AcDbEntity
  8
Linee visibili 2D
100
AcDbSpline
210
0.0
220
0.0
230
1.0
 70
    12
 71
     2
 72
     6
 73
     3
 74
     0
 42
0.0000000001
 43
0.0000000001
 40
0.0
 40
0.0
 40
0.0
 40
47.97510542686572
 40
47.97510542686572
 40
47.97510542686572
 10
25.80655371567968
 20
274.306550078217
 30
0.0
 41
1.0
 10
9.999999999980312
 20
254.972803302187
 30
0.0
 41
0.9418577625566848
 10
9.999999999938836
 20
230.0000000000555
 30
0.0
 41
1.0
  0
SPLINE
  5
E9
330
1F
100
AcDbEntity
  8
Linee visibili 2D
100
AcDbSpline
210
0.0
220
0.0
230
1.0
 70
    24
 71
     2
 72
     6
 73
     3
 74
     0
 42
0.0000000001
 43
0.0000000001
 40
0.0
 40
0.0
 40
0.0
 40
159.6544534815343
 40
159.6544534815343
 40
159.6544534815343
 10
9.999999999938836
 20
230.0000000000555
 30
0.0
 10
9.999999999969418
 20
150.1727732592883
 30
0.0
 10
10.0
 20
70.34554651852113
 30
0.0
  0
SPLINE
  5
EA
330
1F
100
AcDbEntity
  8
Linee visibili 2D
100
AcDbSpline
210
0.0
220
0.0
230
1.0
 70
    24
 71
     2
 72
     6
 73
     3
 74
     0
 42
0.0000000001
 43
0.0000000001
 40
0.0
 40
0.0
 40
0.0
 40
23.59907837767491
 40
23.59907837767491
 40
23.59907837767491
 10
10.0
 20
70.34554651852113
 30
0.0
 10
10.0
 20
58.54600732968368
 30
0.0
 10
10.0
 20
46.74646814084621
 30
0.0
  0
SPLINE
  5
EB
330
1F
100
AcDbEntity
  8
Linee visibili 2D
100
AcDbSpline
210
0.0
220
0.0
230
1.0
 70
    24
 71
     2
 72
     6
 73
     3
 74
     0
 42
0.0000000001
 43
0.0000000001
 40
-23.59592464067805
 40
-23.59592464067805
 40
-23.59592464067805
 40
0.0
 40
0.0
 40
0.0
 10
230.0
 20
46.74962200332197
 30
0.0
 10
230.0
 20
58.547584323661
 30
0.0
 10
230.0
 20
70.34554664400002
 30
0.0
  0
SPLINE
  5
EC
330
1F
100
AcDbEntity
  8
Linee visibili 2D
100
AcDbSpline
210
0.0
220
0.0
230
1.0
 70
    24
 71
     2
 72
     6
 73
     3
 74
     0
 42
0.0000000001
 43
0.0000000001
 40
0.0
 40
0.0
 40
0.0
 40
159.6544533559445
 40
159.6544533559445
 40
159.6544533559445
 10
230.0
 20
70.34554664400002
 30
0.0
 10
230.0000000000306
 20
150.1727733219723
 30
0.0
 10
230.0000000000612
 20
229.9999999999445
 30
0.0
  0
SPLINE
  5
ED
330
1F
100
AcDbEntity
  8
Linee visibili 2D
100
AcDbSpline
210
0.0
220
0.0
230
1.0
 70
    12
 71
     2
 72
     6
 73
     3
 74
     0
 42
0.0000000001
 43
0.0000000001
 40
0.0
 40
0.0
 40
0.0
 40
47.97510527324331
 40
47.97510527324331
 40
47.97510527324331
 10
230.0000000000612
 20
229.9999999999445
 30
0.0
 41
1.0
 10
230.0000000000588
 20
254.9728032154884
 30
0.0
 41
0.9418577629253992
 10
214.193446381626
 20
274.306549959198
 30
0.0
 41
1.0
  0
SPLINE
  5
EE
330
1F
100
AcDbEntity
  8
Linee visibili 2D - Tangent
100
AcDbSpline
210
0.0
220
0.0
230
1.0
 70
    12
 71
     2
 72
     6
 73
     3
 74
     0
 42
0.0000000001
 43
0.0000000001
 40
0.0
 40
0.0
 40
0.0
 40
0.0074083456768834
 40
0.0074083456768834
 40
0.0074083456768834
 10
286.111686857641
 20
369.378350320846
 30
0.0
 41
1.0
 10
286.108618610757
 20
369.3804255980189
 30
0.0
 41
0.9999990232760925
 10
286.1055432468809
 20
369.382506510655
 30
0.0
 41
1.0
  0
SPLINE
  5
EF
330
1F
100
AcDbEntity
  8
Linee visibili 2D - Tangent
100
AcDbSpline
210
0.0
220
0.0
230
1.0
 70
    12
 71
     2
 72
     6
 73
     3
 74
     0
 42
0.0000000001
 43
0.0000000001
 40
-30.1400887524075
 40
-30.1400887524075
 40
-30.1400887524075
 40
0.0
 40
0.0
 40
0.0
 10
286.1055432468809
 20
369.382506510655
 30
0.0
 41
1.0
 10
270.0328193743823
 20
365.7349175589088
 30
0.0
 41
0.8763628014617822
 10
264.4967715211492
 20
350.2110940939858
 30
0.0
 41
1.0
  0
SPLINE
  5
F0
330
1F
100
AcDbEntity
  8
Linee visibili 2D - Tangent
100
AcDbSpline
210
0.0
220
0.0
230
1.0
 70
     8
 71
     3
 72
    23
 73
    19
 74
     0
 42
0.0000000001
 43
0.0000000001
 40
0.0
 40
0.0
 40
0.0
 40
0.0
 40
0.1430266395073747
 40
0.4121700912565763
 40
0.8111600531140833
 40
1.349115631402336
 40
1.881496539162408
 40
2.676529460029049
 40
3.61855161451007
 40
4.710450084162715
 40
7.334819291109912
 40
10.84617314681895
 40
14.78230488826074
 40
19.29898401332604
 40
30.77606554076653
 40
42.86655105952171
 40
54.57189056966471
 40
65.47794597013153
 40
65.47794597013153
 40
65.47794597013153
 40
65.47794597013153
 10
264.4967715211492
 20
350.2110940939858
 30
0.0
 10
264.4852677222534
 20
350.2586958717427
 30
0.0
 10
264.3941765235929
 20
350.3667236074086
 30
0.0
 10
264.148890723505
 20
350.4879147868508
 30
0.0
 10
263.7641524285402
 20
350.6031064717674
 30
0.0
 10
263.2824668006717
 20
350.6979353332263
 30
0.0
 10
262.667902109494
 20
350.7889965134187
 30
0.0
 10
261.915364236982
 20
350.87141988708
 30
0.0
 10
260.9758467680992
 20
350.9493287820849
 30
0.0
 10
259.4258876941819
 20
351.0466097338226
 30
0.0
 10
257.0186215031786
 20
351.1442169149343
 30
0.0
 10
253.6620515156274
 20
351.2203446867961
 30
0.0
 10
249.6742422242878
 20
351.2651333161707
 30
0.0
 10
243.0308996729743
 20
351.2847461936999
 30
0.0
 10
233.6695887750193
 20
351.2160679563194
 30
0.0
 10
221.9136034301605
 20
351.0105324856348
 30
0.0
 10
210.3507214100478
 20
350.6844077223057
 30
0.0
 10
202.8195069887458
 20
350.3820412982689
 30
0.0
 10
199.1881744827294
 20
350.2110940896114
 30
0.0
  0
SPLINE
  5
F1
330
1F
100
AcDbEntity
  8
Linee visibili 2D - Tangent
100
AcDbSpline
210
0.0
220
0.0
230
1.0
 70
    12
 71
     2
 72
     6
 73
     3
 74
     0
 42
0.0000000001
 43
0.0000000001
 40
0.0
 40
0.0
 40
0.0
 40
2.076626708526911
 40
2.076626708526911
 40
2.076626708526911
 10
199.1881744827294
 20
350.2110940896114
 30
0.0
 41
1.0
 10
198.1510033164339
 20
350.1623313895371
 30
0.0
 41
0.9999949859977796
 10
197.1141617835883
 20
350.1070008836577
 30
0.0
 41
1.0
  0
SPLINE
  5
F2
330
1F
100
AcDbEntity
  8
Linee visibili 2D - Tangent
100
AcDbSpline
210
0.0
220
0.0
230
1.0
 70
    24
 71
     2
 72
     6
 73
     3
 74
     0
 42
0.0000000001
 43
0.0000000001
 40
0.0
 40
0.0
 40
0.0
 40
154.2283489526534
 40
154.2283489526534
 40
154.2283489526534
 10
197.1141617835883
 20
350.1070008836577
 30
0.0
 10
119.9999873072942
 20
350.1070717417039
 30
0.0
 10
42.88581283100007
 20
350.10714259975
 30
0.0
  0
SPLINE
  5
F3
330
1F
100
AcDbEntity
  8
Linee visibili 2D - Tangent
100
AcDbSpline
210
0.0
220
0.0
230
1.0
 70
    12
 71
     2
 72
     8
 73
     5
 74
     0
 42
0.0000000001
 43
0.0000000001
 40
0.0
 40
0.0
 40
0.0
 40
0.0000598969113354
 40
0.0000598969113354
 40
2.076594361166117
 40
2.076594361166117
 40
2.076594361166117
 10
42.88581283100007
 20
350.10714259975
 30
0.0
 41
1.0
 10
42.88578288627063
 20
350.1071434016892
 30
0.0
 41
0.9996490178743792
 10
42.88575302604977
 20
350.1071457885541
 30
0.0
 41
1.0
 10
41.84895391380903
 20
350.1624057369833
 30
0.0
 41
0.9999949798041923
 10
40.81182542372972
 20
350.2110940940047
 30
0.0
 41
1.0
  0
SPLINE
  5
F4
330
1F
100
AcDbEntity
  8
Linee visibili 2D - Tangent
100
AcDbSpline
210
0.0
220
0.0
230
1.0
 70
     8
 71
     3
 72
    23
 73
    19
 74
     0
 42
0.0000000001
 43
0.0000000001
 40
0.0
 40
0.0
 40
0.0
 40
0.0
 40
10.90605539193208
 40
22.61139489143347
 40
34.70188039726978
 40
46.17896190993229
 40
50.69564102816187
 40
54.63177276290696
 40
58.14312661174445
 40
60.7674958126228
 40
61.85939427934879
 40
62.80141643099294
 40
63.59644934911421
 40
64.12883025474906
 40
64.66678583048221
 40
65.0657757899474
 40
65.33491923964304
 40
65.47794587819925
 40
65.47794587819925
 40
65.47794587819925
 40
65.47794587819925
 10
40.81182542372972
 20
350.2110940940047
 30
0.0
 10
37.18049290021258
 20
350.3820416548983
 30
0.0
 10
29.64927854803568
 20
350.6844069919373
 30
0.0
 10
18.0863983427198
 20
351.0104418211661
 30
0.0
 10
6.330409898207789
 20
351.2162067747183
 30
0.0
 10
-3.030900606693876
 20
351.2845605834987
 30
0.0
 10
-9.674235969548817
 20
351.2652722413619
 30
0.0
 10
-13.66207004177954
 20
351.2202786022704
 30
0.0
 10
-17.01858179101373
 20
351.1442066993491
 30
0.0
 10
-19.42594933541386
 20
351.0466293353848
 30
0.0
 10
-20.97574734459408
 20
350.9493203008997
 30
0.0
 10
-21.91556359431092
 20
350.8715200086226
 30
0.0
 10
-22.66761546141697
 20
350.7888155667995
 30
0.0
 10
-23.2828602180191
 20
350.6981743054839
 30
0.0
 10
-23.76376760864649
 20
350.6028800159652
 30
0.0
 10
-24.14918553313055
 20
350.4880822867422
 30
0.0
 10
-24.3940124160863
 20
350.3666240690452
 30
0.0
 10
-24.48533642575308
 20
350.2587375424107
 30
0.0
 10
-24.49677152103527
 20
350.2110940940461
 30
0.0
  0
SPLINE
  5
F5
330
1F
100
AcDbEntity
  8
Linee visibili 2D - Tangent
100
AcDbSpline
210
0.0
220
0.0
230
1.0
 70
    12
 71
     2
 72
     6
 73
     3
 74
     0
 42
0.0000000001
 43
0.0000000001
 40
0.0
 40
0.0
 40
0.0
 40
0.1055207437720651
 40
0.1055207437720651
 40
0.1055207437720651
 10
-24.49677152103527
 20
350.2110940940461
 30
0.0
 41
1.0
 10
-24.50927750352263
 20
350.1581608759884
 30
0.0
 41
0.9556444729114376
 10
-24.48977473966738
 20
350.1072513679073
 30
0.0
 41
1.0
  0
SPLINE
  5
F6
330
1F
100
AcDbEntity
  8
Linee visibili 2D - Tangent
100
AcDbSpline
210
0.0
220
0.0
230
1.0
 70
    12
 71
     2
 72
     6
 73
     3
 74
     0
 42
0.0000000001
 43
0.0000000001
 40
-90.50744983483266
 40
-90.50744983483266
 40
-90.50744983483266
 40
0.0
 40
0.0
 40
0.0
 10
-24.48977473966738
 20
350.1072513679073
 30
0.0
 41
1.0
 10
-8.963530735571087
 20
306.0863773618965
 30
0.0
 41
0.9548354809980928
 10
28.79977882141384
 20
278.6487716148883
 30
0.0
 41
1.0
  0
SPLINE
  5
F7
330
1F
100
AcDbEntity
  8
Linee visibili 2D - Tangent
100
AcDbSpline
210
0.0
220
0.0
230
1.0
 70
     8
 71
     3
 72
    17
 73
    13
 74
     0
 42
0.0000000001
 43
0.0000000001
 40
0.0
 40
0.0
 40
0.0
 40
0.0
 40
4.410729411139428
 40
9.094836377347684
 40
11.84730963631601
 40
14.68358080649292
 40
17.60970213206783
 40
20.97614922458328
 40
27.66617488133267
 40
35.67038556482364
 40
44.29247041576014
 40
54.46083789271767
 40
54.46083789271767
 40
54.46083789271767
 40
54.46083789271767
 10
28.79977882141384
 20
278.6487716148883
 30
0.0
 10
29.98955229567355
 20
277.7845768580903
 30
0.0
 10
32.56747343358211
 20
276.1787914476697
 30
0.0
 10
36.13135723496839
 20
274.4667942506296
 30
0.0
 10
39.31079223465872
 20
273.1934084002396
 30
0.0
 10
41.98888159031958
 20
272.2514381357073
 30
0.0
 10
44.89434326007131
 20
271.3458139571667
 30
0.0
 10
49.06762873253775
 20
270.1982279895597
 30
0.0
 10
54.93803237636847
 20
268.8548670132102
 30
0.0
 10
62.58707890836627
 20
267.4683702098082
 30
0.0
 10
71.42769405464924
 20
266.1896349842496
 30
0.0
 10
77.64947182225728
 20
265.4641408141145
 30
0.0
 10
81.0195149431454
 20
265.1020272378446
 30
0.0
  0
SPLINE
  5
F8
330
1F
100
AcDbEntity
  8
Linee visibili 2D - Tangent
100
AcDbSpline
210
0.0
220
0.0
230
1.0
 70
    12
 71
     2
 72
    10
 73
     7
 74
     0
 42
0.0000000001
 43
0.0000000001
 40
0.0
 40
0.0
 40
0.0
 40
1.120230349999632
 40
1.120230349999632
 40
1.663178997903273
 40
1.663178997903273
 40
1.798326848911114
 40
1.798326848911114
 40
1.798326848911114
 10
81.0195149431454
 20
265.1020272378446
 30
0.0
 41
1.0
 10
81.5764196192236
 20
265.0420937843954
 30
0.0
 41
0.9999860682879862
 10
82.13392597720988
 20
264.9880429020252
 30
0.0
 41
1.0
 10
82.4041344563693
 20
264.9618508684188
 30
0.0
 41
0.9999965779328515
 10
82.67447627977322
 20
264.9370729881107
 30
0.0
 41
1.0
 10
82.74176820572606
 20
264.930905863513
 30
0.0
 41
0.9999997838070932
 10
82.80906818399991
 20
264.9248272412501
 30
0.0
 41
1.0
  0
SPLINE
  5
F9
330
1F
100
AcDbEntity
  8
Linee visibili 2D - Tangent
100
AcDbSpline
210
0.0
220
0.0
230
1.0
 70
    24
 71
     2
 72
     6
 73
     3
 74
     0
 42
0.0000000001
 43
0.0000000001
 40
0.0
 40
0.0
 40
0.0
 40
74.38175311717633
 40
74.38175311717633
 40
74.38175311717633
 10
82.80906818399991
 20
264.9248272412501
 30
0.0
 10
119.9999447424999
 20
264.924746264125
 30
0.0
 10
157.1908213009999
 20
264.9246652869999
 30
0.0
  0
SPLINE
  5
FA
330
1F
100
AcDbEntity
  8
Linee visibili 2D - Tangent
100
AcDbSpline
210
0.0
220
0.0
230
1.0
 70
    12
 71
     2
 72
    10
 73
     7
 74
     0
 42
0.0000000001
 43
0.0000000001
 40
0.0
 40
0.0
 40
0.0
 40
0.1351572315976597
 40
0.1351572315976597
 40
0.678143705439819
 40
0.678143705439819
 40
1.798452789041055
 40
1.798452789041055
 40
1.798452789041055
 10
157.1908213009999
 20
264.9246652869999
 30
0.0
 41
1.0
 10
157.2581254383515
 20
264.9307499993899
 30
0.0
 41
0.9999997838398924
 10
157.3254215159855
 20
264.9369232128654
 30
0.0
 41
1.0
 10
157.5957800880049
 20
264.9617255614232
 30
0.0
 41
0.9999965784550324
 10
157.8660051979925
 20
264.9879420426985
 30
0.0
 41
1.0
 10
158.4235462112881
 20
265.0420434005942
 30
0.0
 41
0.9999860704430032
 10
158.9804850568548
 20
265.1020272378444
 30
0.0
 41
1.0
  0
SPLINE
  5
FB
330
1F
100
AcDbEntity
  8
Linee visibili 2D - Tangent
100
AcDbSpline
210
0.0
220
0.0
230
1.0
 70
     8
 71
     3
 72
    13
 73
     9
 74
     0
 42
0.0000000001
 43
0.0000000001
 40
-44.5529323759089
 40
-44.5529323759089
 40
-44.5529323759089
 40
-44.5529323759089
 40
-30.2323988277009
 40
-18.47610282972144
 40
-13.14576857223627
 40
-8.364994825388937
 40
-4.137973744313637
 40
0.0
 40
0.0
 40
0.0
 40
0.0
 10
158.9804850568548
 20
265.1020272378444
 30
0.0
 10
163.7266174254394
 20
265.6121078482881
 30
0.0
 10
172.3582108174035
 20
266.6494819185452
 30
0.0
 10
182.6891158008916
 20
268.3681668012002
 30
0.0
 10
189.8110764603337
 20
269.9282699835809
 30
0.0
 10
194.4364598767409
 20
271.1352695095411
 30
0.0
 10
198.6227529909752
 20
272.4347104098431
 30
0.0
 10
201.2375703661717
 20
273.4065300635561
 30
0.0
 10
202.512766026568
 20
273.9324459683435
 30
0.0
  0
SPLINE
  5
FC
330
1F
100
AcDbEntity
  8
Linee visibili 2D - Tangent
100
AcDbSpline
210
0.0
220
0.0
230
1.0
 70
    12
 71
     3
 72
    10
 73
     6
 74
     0
 42
0.0000000001
 43
0.0000000001
 40
0.7831904322094334
 40
0.7831904322094334
 40
0.7831904322094334
 40
0.7831904322094334
 40
0.875
 40
0.875
 40
1.0
 40
1.0
 40
1.0
 40
1.0
 10
202.512766026568
 20
273.9324459683435
 30
0.0
 41
1.0
 10
203.8911748075477
 20
274.5005355337535
 30
0.0
 41
1.0
 10
205.2156662783768
 20
275.1082578326818
 30
0.0
 41
1.0
 10
208.1793483584222
 20
276.6417741895273
 30
0.0
 41
1.0
 10
209.7527899981512
 20
277.597390106348
 30
0.0
 41
1.0
 10
211.2002684782501
 20
278.64904856975
 30
0.0
 41
1.0
  0
SPLINE
  5
FD
330
1F
100
AcDbEntity
  8
Linee visibili 2D - Tangent
100
AcDbSpline
210
0.0
220
0.0
230
1.0
 70
    12
 71
     2
 72
     6
 73
     3
 74
     0
 42
0.0000000001
 43
0.0000000001
 40
-90.50686451020414
 40
-90.50686451020414
 40
-90.50686451020414
 40
0.0
 40
0.0
 40
0.0
 10
211.2002684782501
 20
278.64904856975
 30
0.0
 41
1.0
 10
248.9631390612448
 20
306.0866277130874
 30
0.0
 41
0.9548375692090411
 10
264.4896133881712
 20
350.1068928064535
 30
0.0
 41
1.0
  0
SPLINE
  5
FE
330
1F
100
AcDbEntity
  8
Linee visibili 2D - Tangent
100
AcDbSpline
210
0.0
220
0.0
230
1.0
 70
    24
 71
     2
 72
     6
 73
     3
 74
     0
 42
0.0000000001
 43
0.0000000001
 40
0.0
 40
0.0
 40
0.0
 40
79.99999999999976
 40
79.99999999999976
 40
79.99999999999976
 10
0.0000000000002274
 20
25.00000000000023
 30
0.0
 10
40.0000000000001
 20
25.00000000000011
 30
0.0
 10
80.0
 20
25.0
 30
0.0
  0
SPLINE
  5
FF
330
1F
100
AcDbEntity
  8
Linee visibili 2D - Tangent
100
AcDbSpline
210
0.0
220
0.0
230
1.0
 70
    24
 71
     2
 72
     6
 73
     3
 74
     0
 42
0.0000000001
 43
0.0000000001
 40
0.0
 40
0.0
 40
0.0
 40
80.00000000000024
 40
80.00000000000024
 40
80.00000000000024
 10
80.0
 20
25.0
 30
0.0
 10
120.0000000000001
 20
25.0
 30
0.0
 10
160.0000000000002
 20
25.0
 30
0.0
  0
SPLINE
  5
100
330
1F
100
AcDbEntity
  8
Linee visibili 2D - Tangent
100
AcDbSpline
210
0.0
220
0.0
230
1.0
 70
    24
 71
     2
 72
     6
 73
     3
 74
     0
 42
0.0000000001
 43
0.0000000001
 40
0.0
 40
0.0
 40
0.0
 40
79.99999999999976
 40
79.99999999999976
 40
79.99999999999976
 10
160.0000000000002
 20
25.0
 30
0.0
 10
200.0000000000001
 20
25.00000000000011
 30
0.0
 10
240.0
 20
25.00000000000023
 30
0.0
  0
SPLINE
  5
101
330
1F
100
AcDbEntity
  8
Linee visibili 2D
100
AcDbSpline
210
0.0
220
0.0
230
1.0
 70
    12
 71
     2
 72
     6
 73
     3
 74
     0
 42
0.0000000001
 43
0.0000000001
 40
0.0
 40
0.0
 40
0.0
 40
0.3867003177490211
 40
0.3867003177490211
 40
0.3867003177490211
 10
-624.0040323251475
 20
370.8043564159149
 30
0.0
 41
1.0
 10
-623.8417811519403
 20
370.9096883049305
 30
0.0
 41
0.9992791273493278
 10
-623.687989424289
 20
371.0270269369182
 30
0.0
 41
1.0
  0
SPLINE
  5
102
330
1F
100
AcDbEntity
  8
Linee visibili 2D
100
AcDbSpline
210
0.0
220
0.0
230
1.0
 70
    12
 71
     2
 72
     6
 73
     3
 74
     0
 42
0.0000000001
 43
0.0000000001
 40
0.0
 40
0.0
 40
0.0
 40
0.1279058727421893
 40
0.1279058727421893
 40
0.1279058727421893
 10
-623.5869941734428
 20
371.1061154289032
 30
0.0
 41
1.0
 10
-623.5371410921301
 20
371.1461789071587
 30
0.0
 41
0.9999204352268415
 10
-623.4883145498504
 20
371.187487269209
 30
0.0
 41
1.0
  0
SPLINE
  5
103
330
1F
100
AcDbEntity
  8
Linee visibili 2D
100
AcDbSpline
210
0.0
220
0.0
230
1.0
 70
    12
 71
     2
 72
     6
 73
     3
 74
     0
 42
0.0000000001
 43
0.0000000001
 40
0.0
 40
0.0
 40
0.0
 40
0.3635796311667043
 40
0.3635796311667043
 40
0.3635796311667043
 10
-622.5069363969088
 20
372.3122451150417
 30
0.0
 41
1.0
 10
-622.4092307685006
 20
372.4656375640758
 30
0.0
 41
0.9993628967526195
 10
-622.3227163375452
 20
372.6256090817897
 30
0.0
 41
1.0
  0
SPLINE
  5
104
330
1F
100
AcDbEntity
  8
Linee visibili 2D
100
AcDbSpline
210
0.0
220
0.0
230
1.0
 70
    12
 71
     2
 72
     6
 73
     3
 74
     0
 42
0.0000000001
 43
0.0000000001
 40
0.0
 40
0.0
 40
0.0
 40
7.779422664264543
 40
7.779422664264543
 40
7.779422664264543
 10
-996.6475364808667
 20
30.00055589369549
 30
0.0
 41
1.0
 10
-991.7220926874319
 20
30.07400854104622
 30
0.0
 41
0.7123591935649259
 10
-991.7220926874325
 20
35.0
 30
0.0
 41
1.0
  0
SPLINE
  5
105
330
1F
100
AcDbEntity
  8
Linee visibili 2D - Tangent
100
AcDbSpline
210
0.0
220
0.0
230
1.0
 70
    12
 71
     2
 72
     6
 73
     3
 74
     0
 42
0.0000000001
 43
0.0000000001
 40
0.0
 40
0.0
 40
0.0
 40
4.517536732021909
 40
4.517536732021909
 40
4.517536732021909
 10
-492.9011618591819
 20
70.34549849702717
 30
0.0
 41
1.0
 10
-490.6423934934152
 20
70.34553274737928
 30
0.0
 41
0.9999999999898504
 10
-488.3836251274318
 20
70.34554664400889
 30
0.0
 41
1.0
  0
SPLINE
  5
106
330
1F
100
AcDbEntity
  8
Linee visibili 2D - Tangent
100
AcDbSpline
210
0.0
220
0.0
230
1.0
 70
    12
 71
     2
 72
     6
 73
     3
 74
     0
 42
0.0000000001
 43
0.0000000001
 40
0.0
 40
0.0
 40
0.0
 40
4.517563946581993
 40
4.517563946581993
 40
4.517563946581993
 10
-512.0674412474507
 20
46.66151354299996
 30
0.0
 41
1.0
 10
-512.0674578551803
 20
48.92029551624496
 30
0.0
 41
0.999999999989917
 10
-512.0674947496961
 20
51.17907748924995
 30
0.0
 41
1.0
  0
SPLINE
  5
107
330
1F
100
AcDbEntity
  8
Linee visibili 2D
100
AcDbSpline
210
0.0
220
0.0
230
1.0
 70
    12
 71
     2
 72
     6
 73
     3
 74
     0
 42
0.0000000001
 43
0.0000000001
 40
0.0
 40
0.0
 40
0.0
 40
5.93860558804508
 40
5.93860558804508
 40
5.93860558804508
 10
-1101.65913062208
 20
373.4622120966978
 30
0.0
 41
1.0
 10
-1101.125091273513
 20
370.1289134441063
 30
0.0
 41
0.828786417907184
 10
-1097.833780600004
 20
369.3783456699323
 30
0.0
 41
1.0
  0
SPLINE
  5
108
330
1F
100
AcDbEntity
  8
Linee visibili 2D
100
AcDbSpline
210
0.0
220
0.0
230
1.0
 70
    12
 71
     2
 72
     6
 73
     3
 74
     0
 42
0.0000000001
 43
0.0000000001
 40
0.0
 40
0.0
 40
0.0
 40
33.8365584811459
 40
33.8365584811459
 40
33.8365584811459
 10
-520.0063639345473
 20
280.0000000000255
 30
0.0
 41
1.0
 10
-501.0326979738445
 20
280.0000000003213
 30
0.0
 41
0.8451542547305358
 10
-492.9011268479665
 20
297.1428571429658
 30
0.0
 41
1.0
  0
SPLINE
  5
109
330
1F
100
AcDbEntity
  8
Linee visibili 2D
100
AcDbSpline
210
0.0
220
0.0
230
1.0
 70
    12
 71
     2
 72
     6
 73
     3
 74
     0
 42
0.0000000001
 43
0.0000000001
 40
0.0
 40
0.0
 40
0.0
 40
33.83655848209015
 40
33.83655848209015
 40
33.83655848209015
 10
-988.8649498304559
 20
51.17903415995261
 30
0.0
 41
1.0
 10
-971.7220926873746
 20
59.3106052862042
 30
0.0
 41
0.8451542547289141
 10
-971.7220926873443
 20
78.28427124746191
 30
0.0
 41
1.0
  0
SPLINE
  5
10A
330
1F
100
AcDbEntity
  8
Linee visibili 2D
100
AcDbSpline
210
0.0
220
0.0
230
1.0
 70
    12
 71
     2
 72
     6
 73
     3
 74
     0
 42
0.0000000001
 43
0.0000000001
 40
0.0
 40
0.0
 40
0.0
 40
0.1571687168988258
 40
0.1571687168988258
 40
0.1571687168988258
 10
-649.099769896275
 20
369.9997838632523
 30
0.0
 41
1.0
 10
-649.1783538684788
 20
369.9994856726154
 30
0.0
 41
0.9999965737274772
 10
-649.2569352025214
 20
369.9987760635429
 30
0.0
 41
1.0
  0
SPLINE
  5
10B
330
1F
100
AcDbEntity
  8
Linee visibili 2D
100
AcDbSpline
210
0.0
220
0.0
230
1.0
 70
    12
 71
     2
 72
     6
 73
     3
 74
     0
 42
0.0000000001
 43
0.0000000001
 40
0.0
 40
0.0
 40
0.0
 40
5.856349354930821
 40
5.856349354930821
 40
5.856349354930821
 10
-674.2002147601799
 20
356.2570979051973
 30
0.0
 41
1.0
 10
-675.797515855647
 20
353.7913271930034
 30
0.0
 41
0.9950298899547988
 10
-676.8745148762375
 20
351.0579283738882
 30
0.0
 41
1.0
  0
SPLINE
  5
10C
330
1F
100
AcDbEntity
  8
Linee visibili 2D
100
AcDbSpline
210
0.0
220
0.0
230
1.0
 70
    12
 71
     2
 72
     6
 73
     3
 74
     0
 42
0.0000000001
 43
0.0000000001
 40
0.0
 40
0.0
 40
0.0
 40
0.2412169880049556
 40
0.2412169880049556
 40
0.2412169880049556
 10
-676.889593968089
 20
351.0196690363064
 30
0.0
 41
1.0
 10
-676.9337424126153
 20
350.9074305693172
 30
0.0
 41
0.9999922764888635
 10
-676.9770072467811
 20
350.7948485425509
 30
0.0
 41
1.0
  0
SPLINE
  5
10D
330
1F
100
AcDbEntity
  8
Linee visibili 2D
100
AcDbSpline
210
0.0
220
0.0
230
1.0
 70
    12
 71
     3
 72
     8
 73
     4
 74
     0
 42
0.0000000001
 43
0.0000000001
 40
0.1249999882933868
 40
0.1249999882933868
 40
0.1249999882933868
 40
0.1249999882933868
 40
0.8123616240383679
 40
0.8123616240383679
 40
0.8123616240383679
 40
0.8123616240383679
 10
-770.3085834161956
 20
369.381956575357
 30
0.0
 41
1.0
 10
-764.4904799794773
 20
369.3960649787073
 30
0.0
 41
1.0
 10
-758.67556616428
 20
369.4524499840942
 30
0.0
 41
1.0
 10
-752.8607589451085
 20
369.5691170701664
 30
0.0
 41
1.0
  0
SPLINE
  5
10E
330
1F
100
AcDbEntity
  8
Linee visibili 2D
100
AcDbSpline
210
0.0
220
0.0
230
1.0
 70
    12
 71
     3
 72
    10
 73
     6
 74
     0
 42
0.0000000001
 43
0.0000000001
 40
3.098198395014492
 40
3.098198395014492
 40
3.098198395014492
 40
3.098198395014492
 40
3.250000071848962
 40
3.250000071848962
 40
3.412264675627382
 40
3.412264675627382
 40
3.412264675627382
 40
3.412264675627382
 10
-1077.27950800906
 20
352.7305514683821
 30
0.0
 41
1.0
 10
-1077.900544713268
 20
354.0717550289524
 30
0.0
 41
1.0
 10
-1078.631051559056
 20
355.3908894526003
 30
0.0
 41
1.0
 10
-1080.368142957458
 20
358.0211296702769
 30
0.0
 41
1.0
 10
-1081.390345526971
 20
359.3243457187913
 30
0.0
 41
1.0
 10
-1082.520507101278
 20
360.5421321748634
 30
0.0
 41
1.0
  0
SPLINE
  5
10F
330
1F
100
AcDbEntity
  8
Linee visibili 2D
100
AcDbSpline
210
0.0
220
0.0
230
1.0
 70
    12
 71
     3
 72
     8
 73
     4
 74
     0
 42
0.0000000001
 43
0.0000000001
 40
2.546812864723431
 40
2.546812864723431
 40
2.546812864723431
 40
2.546812864723431
 40
2.712052942916884
 40
2.712052942916884
 40
2.712052942916884
 40
2.712052942916884
 10
-757.2648881903121
 20
296.1437169073549
 30
0.0
 41
1.0
 10
-757.0559649179847
 20
294.4487028045817
 30
0.0
 41
1.0
 10
-757.1723618753192
 20
292.5446140472222
 30
0.0
 41
1.0
 10
-757.4318150389606
 20
290.5465192454647
 30
0.0
 41
1.0
  0
SPLINE
  5
110
330
1F
100
AcDbEntity
  8
Linee visibili 2D
100
AcDbSpline
210
0.0
220
0.0
230
1.0
 70
    12
 71
     3
 72
     8
 73
     4
 74
     0
 42
0.0000000001
 43
0.0000000001
 40
2.792906614723431
 40
2.792906614723431
 40
2.792906614723431
 40
2.792906614723431
 40
2.963860241549607
 40
2.963860241549607
 40
2.963860241549607
 40
2.963860241549607
 10
-757.8963031672874
 20
287.5571658332183
 30
0.0
 41
1.0
 10
-758.2730594475947
 20
285.413617481564
 30
0.0
 41
1.0
 10
-758.7353396076167
 20
283.1909317698248
 30
0.0
 41
1.0
 10
-759.1275539142102
 20
280.8822069352273
 30
0.0
 41
1.0
  0
SPLINE
  5
111
330
1F
100
AcDbEntity
  8
Linee visibili 2D
100
AcDbSpline
210
0.0
220
0.0
230
1.0
 70
    12
 71
     2
 72
     6
 73
     3
 74
     0
 42
0.0000000001
 43
0.0000000001
 40
0.0
 40
0.0
 40
0.0
 40
4.064331292970246
 40
4.064331292970246
 40
4.064331292970246
 10
-983.5524436745012
 20
277.1397300232431
 30
0.0
 41
1.0
 10
-985.3247808324159
 20
276.1453410366486
 30
0.0
 41
0.9999471105523459
 10
-987.1171960524609
 20
275.1876165789179
 30
0.0
 41
1.0
  0
SPLINE
  5
112
330
1F
100
AcDbEntity
  8
Linee visibili 2D
100
AcDbSpline
210
0.0
220
0.0
230
1.0
 70
    12
 71
     3
 72
     8
 73
     4
 74
     0
 42
0.0000000001
 43
0.0000000001
 40
3.102560203393224
 40
3.102560203393224
 40
3.102560203393224
 40
3.102560203393224
 40
3.906251140957478
 40
3.906251140957478
 40
3.906251140957478
 40
3.906251140957478
 10
-782.4921613489309
 20
254.3124176589747
 30
0.0
 41
1.0
 10
-773.7151408876696
 20
254.5691772636064
 30
0.0
 41
1.0
 10
-765.1221049890759
 20
255.8196857825512
 30
0.0
 41
1.0
 10
-756.6804191474302
 20
257.8878541784243
 30
0.0
 41
1.0
  0
SPLINE
  5
113
330
1F
100
AcDbEntity
  8
Linee visibili 2D - Tangent
100
AcDbSpline
210
0.0
220
0.0
230
1.0
 70
    24
 71
     2
 72
     6
 73
     3
 74
     0
 42
0.0000000001
 43
0.0000000001
 40
0.0
 40
0.0
 40
0.0
 40
0.0012250170331131
 40
0.0012250170331131
 40
0.0012250170331131
 10
-975.8602636798249
 20
280.5937842933336
 30
0.0
 10
-975.8598492151923
 20
280.5933333102397
 30
0.0
 10
-975.8594347505592
 20
280.5928823271458
 30
0.0
  0
SPLINE
  5
114
330
1F
100
AcDbEntity
  8
Linee visibili 2D
100
AcDbSpline
210
0.0
220
0.0
230
1.0
 70
    12
 71
     2
 72
     6
 73
     3
 74
     0
 42
0.0000000001
 43
0.0000000001
 40
0.0
 40
0.0
 40
0.0
 40
1.97414420583901
 40
1.97414420583901
 40
1.97414420583901
 10
-1098.536512304893
 20
369.5953391542273
 30
0.0
 41
1.0
 10
-1099.46694643909
 20
369.9609784466894
 30
0.0
 41
0.9811599614485851
 10
-1100.189304239215
 20
370.6520638096292
 30
0.0
 41
1.0
  0
SPLINE
  5
115
330
1F
100
AcDbEntity
  8
Linee visibili 2D
100
AcDbSpline
210
0.0
220
0.0
230
1.0
 70
    12
 71
     2
 72
     6
 73
     3
 74
     0
 42
0.0000000001
 43
0.0000000001
 40
0.0
 40
0.0
 40
0.0
 40
0.4371679930569218
 40
0.4371679930569218
 40
0.4371679930569218
 10
-1101.003973599554
 20
371.6734271595488
 30
0.0
 41
1.0
 10
-1101.116374280792
 20
371.8610581500956
 30
0.0
 41
0.9990540185087752
 10
-1101.212046487193
 20
372.0577460518048
 30
0.0
 41
1.0
  0
SPLINE
  5
116
330
1F
100
AcDbEntity
  8
Linee visibili 2D
100
AcDbSpline
210
0.0
220
0.0
230
1.0
 70
    24
 71
     2
 72
     6
 73
     3
 74
     0
 42
0.0000000001
 43
0.0000000001
 40
0.0
 40
0.0
 40
0.0
 40
0.0366970308614327
 40
0.0366970308614327
 40
0.0366970308614327
 10
-651.7220926874321
 20
369.9999999999262
 30
0.0
 10
-651.7220926874322
 20
369.9816514844954
 30
0.0
 10
-651.7220926874322
 20
369.9633029690647
 30
0.0
  0
SPLINE
  5
117
330
1F
100
AcDbEntity
  8
Linee visibili 2D
100
AcDbSpline
210
0.0
220
0.0
230
1.0
 70
    12
 71
     2
 72
     6
 73
     3
 74
     0
 42
0.0000000001
 43
0.0000000001
 40
0.0
 40
0.0
 40
0.0
 40
0.1506105516680397
 40
0.1506105516680397
 40
0.1506105516680397
 10
-658.3801082775677
 20
369.9684554837525
 30
0.0
 41
1.0
 10
-658.4553126049756
 20
369.9645520334181
 30
0.0
 41
0.9999942844088105
 10
-658.5304888180722
 20
369.9601401438213
 30
0.0
 41
1.0
  0
SPLINE
  5
118
330
1F
100
AcDbEntity
  8
Linee visibili 2D
100
AcDbSpline
210
0.0
220
0.0
230
1.0
 70
    12
 71
     2
 72
    10
 73
     7
 74
     0
 42
0.0000000001
 43
0.0000000001
 40
-0.3727790715921399
 40
-0.3727790715921399
 40
-0.3727790715921399
 40
-0.1401824000739007
 40
-0.1401824000739007
 40
-0.0277080080482054
 40
-0.0277080080482054
 40
0.0
 40
0.0
 40
0.0
 10
-1000.307817829469
 20
265.1020272378444
 30
0.0
 41
1.0
 10
-1000.208174889831
 20
265.0421664696789
 30
0.0
 41
0.9996127195347638
 10
-1000.105355929985
 20
264.9879420426985
 30
0.0
 41
1.0
 10
-1000.055641853619
 20
264.9617350652985
 30
0.0
 41
0.9999029653114217
 10
-1000.005216988401
 20
264.9369232128654
 30
0.0
 41
1.0
 10
-999.9927953228397
 20
264.9308117648055
 30
0.0
 41
0.9999939014155556
 10
-999.9802996890993
 20
264.9248525662785
 30
0.0
 41
0.9999998782273243
  0
SPLINE
  5
119
330
1F
100
AcDbEntity
  8
Linee visibili 2D
100
AcDbSpline
210
0.0
220
0.0
230
1.0
 70
    12
 71
     2
 72
     6
 73
     3
 74
     0
 42
0.0000000001
 43
0.0000000001
 40
0.0
 40
0.0
 40
0.0
 40
9.549447987438233
 40
9.549447987438233
 40
9.549447987438233
 10
-999.9802996890993
 20
264.9248525662786
 30
0.0
 41
1.0
 10
-1004.281689793894
 20
267.0018965607365
 30
0.0
 41
0.9994933020117791
 10
-1008.44202282636
 20
269.3481767467943
 30
0.0
 41
1.0
  0
SPLINE
  5
11A
330
1F
100
AcDbEntity
  8
Linee visibili 2D
100
AcDbSpline
210
0.0
220
0.0
230
1.0
 70
    12
 71
     2
 72
     6
 73
     3
 74
     0
 42
0.0000000001
 43
0.0000000001
 40
0.0
 40
0.0
 40
0.0
 40
107.7266918614091
 40
107.7266918614091
 40
107.7266918614091
 10
-1008.44202282636
 20
269.3481767467943
 30
0.0
 41
1.0
 10
-1057.483845650001
 20
297.0084612288793
 30
0.0
 41
0.9362176230885083
 10
-1076.211814304309
 20
350.1070008836577
 30
0.0
 41
1.0
  0
SPLINE
  5
11B
330
1F
100
AcDbEntity
  8
Linee visibili 2D
100
AcDbSpline
210
0.0
220
0.0
230
1.0
 70
    12
 71
     3
 72
    10
 73
     6
 74
     0
 42
0.0000000001
 43
0.0000000001
 40
-2.999520065753463
 40
-2.999520065753463
 40
-2.999520065753463
 40
-2.999520065753463
 40
-2.5
 40
-2.5
 40
-2.0
 40
-2.0
 40
-2.0
 40
-2.0
 10
-1076.21664229578
 20
350.1206803774723
 30
0.0
 41
1.0
 10
-1077.892817864605
 20
354.8661773365595
 30
0.0
 41
1.0
 10
-1080.785897106071
 20
359.1762381533156
 30
0.0
 41
1.0
 10
-1088.303732320307
 20
365.8767774817634
 30
0.0
 41
1.0
 10
-1092.92217258853
 20
368.2582980795073
 30
0.0
 41
1.0
 10
-1097.833780600004
 20
369.3783456699323
 30
0.0
 41
1.0
  0
SPLINE
  5
11C
330
1F
100
AcDbEntity
  8
Linee visibili 2D
100
AcDbSpline
210
0.0
220
0.0
230
1.0
 70
    12
 71
     2
 72
     6
 73
     3
 74
     0
 42
0.0000000001
 43
0.0000000001
 40
0.0
 40
0.0
 40
0.0
 40
0.0074118290270448
 40
0.0074118290270448
 40
0.0074118290270448
 10
-1097.833780600004
 20
369.3783456699323
 30
0.0
 41
1.0
 10
-1097.830713041636
 20
369.3804250674597
 30
0.0
 41
0.9999996703758947
 10
-1097.827387670739
 20
369.3824501903578
 30
0.0
 41
1.0
  0
SPLINE
  5
11D
330
1F
100
AcDbEntity
  8
Linee visibili 2D
100
AcDbSpline
210
0.0
220
0.0
230
1.0
 70
    12
 71
     2
 72
     6
 73
     3
 74
     0
 42
0.0000000001
 43
0.0000000001
 40
-30.13957960979611
 40
-30.13957960979611
 40
-30.13957960979611
 40
0.0
 40
0.0
 40
0.0
 10
-1097.827387670739
 20
369.3824501903578
 30
0.0
 41
1.0
 10
-1081.754800765358
 20
365.734605300098
 30
0.0
 41
0.8763668925659487
 10
-1076.218864209742
 20
350.2110940896114
 30
0.0
 41
1.0
  0
SPLINE
  5
11E
330
1F
100
AcDbEntity
  8
Linee visibili 2D
100
AcDbSpline
210
0.0
220
0.0
230
1.0
 70
    12
 71
     2
 72
     6
 73
     3
 74
     0
 42
0.0000000001
 43
0.0000000001
 40
0.0
 40
0.0
 40
0.0
 40
0.1059039932782618
 40
0.1059039932782618
 40
0.1059039932782618
 10
-1076.218864209742
 20
350.2110940896114
 30
0.0
 41
1.0
 10
-1076.231389654948
 20
350.157960443667
 30
0.0
 41
0.9555927285674602
 10
-1076.211814304309
 20
350.1070008836577
 30
0.0
 41
1.0
  0
SPLINE
  5
11F
330
1F
100
AcDbEntity
  8
Linee visibili 2D
100
AcDbSpline
210
0.0
220
0.0
230
1.0
 70
    12
 71
     2
 72
     6
 73
     3
 74
     0
 42
0.0000000001
 43
0.0000000001
 40
0.0
 40
0.0
 40
0.0
 40
0.2227334290734712
 40
0.2227334290734712
 40
0.2227334290734712
 10
-1076.211814304309
 20
350.1070008836577
 30
0.0
 41
1.0
 10
-1076.248853267009
 20
350.2120283903138
 30
0.0
 41
0.9999929366617553
 10
-1076.286680677933
 20
350.3167745066861
 30
0.0
 41
1.0
  0
SPLINE
  5
120
330
1F
100
AcDbEntity
  8
Linee visibili 2D - Tangent
100
AcDbSpline
210
0.0
220
0.0
230
1.0
 70
    12
 71
     2
 72
     6
 73
     3
 74
     0
 42
0.0000000001
 43
0.0000000001
 40
0.0
 40
0.0
 40
0.0
 40
56.40046157844853
 40
56.40046157844853
 40
56.40046157844853
 10
-971.7220926874702
 20
219.931357312
 30
0.0
 41
1.0
 10
-971.723887948193
 20
251.5606254906139
 30
0.0
 41
0.8450384986739031
 10
-1000.307817829469
 20
265.1020272378444
 30
0.0
 41
1.0
  0
SPLINE
  5
121
330
1F
100
AcDbEntity
  8
Linee visibili 2D - Tangent
100
AcDbSpline
210
0.0
220
0.0
230
1.0
 70
     8
 71
     3
 72
    22
 73
    18
 74
     0
 42
0.0000000001
 43
0.0000000001
 40
-14.91509623517016
 40
-14.91509623517016
 40
-14.91509623517016
 40
-14.91509623517016
 40
-14.422972953172
 40
-14.01751940171873
 40
-13.6671247682202
 40
-13.32613263213899
 40
-12.94887390737563
 40
-12.5028629095563
 40
-12.05215033468704
 40
-11.33946697476414
 40
-10.71470876276335
 40
-9.755222515637843
 40
-8.646449120932057
 40
-7.553141603881763
 40
-4.853356756250908
 40
-3.009270490812009
 40
0.0
 40
0.0
 40
0.0
 40
0.0
 10
-1000.307817829469
 20
265.1020272378444
 30
0.0
 10
-1000.448412597066
 20
265.1865849556568
 30
0.0
 10
-1000.695515215784
 20
265.357046071123
 30
0.0
 10
-1000.981761504427
 20
265.6637841673539
 30
0.0
 10
-1001.137767437504
 20
266.0015692448922
 30
0.0
 10
-1001.148736440605
 20
266.3646261726224
 30
0.0
 10
-1001.024966476519
 20
266.7369581944656
 30
0.0
 10
-1000.796037370206
 20
267.0969671726389
 30
0.0
 10
-1000.443744113101
 20
267.5028633923546
 30
0.0
 10
-1000.002361140619
 20
267.9045845254211
 30
0.0
 10
-999.3991579265296
 20
268.3766939372797
 30
0.0
 10
-998.6606366031466
 20
268.8875373097985
 30
0.0
 10
-997.7688266647056
 20
269.4493401864881
 30
0.0
 10
-996.3601537865347
 20
270.277600441128
 30
0.0
 10
-994.7122016704103
 20
271.1807952274876
 30
0.0
 10
-992.4875738323912
 20
272.3597329735001
 30
0.0
 10
-991.053836840622
 20
273.1091702397111
 30
0.0
 10
-990.16564205538
 20
273.5753211970064
 30
0.0
  0
SPLINE
  5
122
330
1F
100
AcDbEntity
  8
Linee visibili 2D - Tangent
100
AcDbSpline
210
0.0
220
0.0
230
1.0
 70
    12
 71
     3
 72
    10
 73
     6
 74
     0
 42
0.0000000001
 43
0.0000000001
 40
0.7636746942122022
 40
0.7636746942122022
 40
0.7636746942122022
 40
0.7636746942122022
 40
0.8749999997845765
 40
0.8749999997845765
 40
0.9941541937273925
 40
0.9941541937273925
 40
0.9941541937273925
 40
0.9941541937273925
 10
-990.16564205538
 20
273.5753211970064
 30
0.0
 41
1.0
 10
-988.8913100938447
 20
274.244053652684
 30
0.0
 41
1.0
 10
-987.5134025332744
 20
274.9702210149312
 30
0.0
 41
1.0
 10
-984.5080836294568
 20
276.6004262009244
 30
0.0
 41
1.0
 10
-982.8732048219812
 20
277.5081649077629
 30
0.0
 41
1.0
 10
-981.1779282982946
 20
278.5021344196557
 30
0.0
 41
1.0
  0
SPLINE
  5
123
330
1F
100
AcDbEntity
  8
Linee visibili 2D - Tangent
100
AcDbSpline
210
0.0
220
0.0
230
1.0
 70
    12
 71
     2
 72
     6
 73
     3
 74
     0
 42
0.0000000001
 43
0.0000000001
 40
-0.2899309547824018
 40
-0.2899309547824018
 40
-0.2899309547824018
 40
0.0
 40
0.0
 40
0.0
 10
-981.1779282982946
 20
278.5021344196557
 30
0.0
 41
1.0
 10
-981.052876062675
 20
278.5754620659631
 30
0.0
 41
0.9999994420004441
 10
-980.9279759756821
 20
278.64904856975
 30
0.0
 41
1.0
  0
SPLINE
  5
124
330
1F
100
AcDbEntity
  8
Linee visibili 2D - Tangent
100
AcDbSpline
210
0.0
220
0.0
230
1.0
 70
     8
 71
     3
 72
    13
 73
     9
 74
     0
 42
0.0000000001
 43
0.0000000001
 40
0.0
 40
0.0
 40
0.0
 40
0.0
 40
7.855590450378677
 40
15.90506025729388
 40
31.05201443295524
 40
45.78876870472986
 40
53.65990757706653
 40
60.78914772711925
 40
60.78914772711925
 40
60.78914772711925
 40
60.78914772711925
 10
-980.9279759756821
 20
278.64904856975
 30
0.0
 10
-978.4970873230808
 20
279.6222510011557
 30
0.0
 10
-973.5342942371207
 20
281.4912384535758
 30
0.0
 10
-963.6963335392511
 20
284.7157524324257
 30
0.0
 10
-951.4334129223199
 20
287.8519080185498
 30
0.0
 10
-938.9851030279723
 20
289.802115431115
 30
0.0
 10
-929.0984757166768
 20
290.5697470839866
 30
0.0
 10
-924.098573709182
 20
290.6969251510395
 30
0.0
 10
-921.722092687432
 20
290.6969553199365
 30
0.0
  0
SPLINE
  5
125
330
1F
100
AcDbEntity
  8
Linee visibili 2D - Tangent
100
AcDbSpline
210
0.0
220
0.0
230
1.0
 70
    24
 71
     2
 72
     6
 73
     3
 74
     0
 42
0.0000000001
 43
0.0000000001
 40
0.0
 40
0.0
 40
0.0
 40
135.860574135507
 40
135.860574135507
 40
135.860574135507
 10
-921.722092687432
 20
290.6969553199365
 30
0.0
 10
-853.7918056196817
 20
290.6969337815933
 30
0.0
 10
-785.8615185519318
 20
290.6969122432502
 30
0.0
  0
SPLINE
  5
126
330
1F
100
AcDbEntity
  8
Linee visibili 2D - Tangent
100
AcDbSpline
210
0.0
220
0.0
230
1.0
 70
     8
 71
     3
 72
    13
 73
     9
 74
     0
 42
0.0000000001
 43
0.0000000001
 40
0.0
 40
0.0
 40
0.0
 40
0.0
 40
3.383462614066488
 40
6.798664849781053
 40
14.08780744905213
 40
21.51087432797694
 40
29.26628525331263
 40
100.5894287635288
 40
100.5894287635288
 40
100.5894287635288
 40
100.5894287635288
 10
-785.8615185519318
 20
290.6969122432502
 30
0.0
 10
-784.7355763961757
 20
290.7627442249181
 30
0.0
 10
-782.4764540041074
 20
290.9475416685068
 30
0.0
 10
-777.8155775955261
 20
291.5299883362504
 30
0.0
 10
-771.8734990000868
 20
292.6530090415113
 30
0.0
 10
-764.6364547120578
 20
294.5990999319806
 30
0.0
 10
-737.3822135802056
 20
304.068097563983
 30
0.0
 10
-715.9543783630878
 20
321.7199219282786
 30
0.0
 10
-690.6285559968643
 20
321.8984245683109
 30
0.0
  0
SPLINE
  5
127
330
1F
100
AcDbEntity
  8
Linee visibili 2D
100
AcDbSpline
210
0.0
220
0.0
230
1.0
 70
    24
 71
     2
 72
     6
 73
     3
 74
     0
 42
0.0000000001
 43
0.0000000001
 40
-20.0
 40
-20.0
 40
-20.0
 40
0.0
 40
0.0
 40
0.0
 10
-611.7220926874319
 20
415.0
 30
0.0
 10
-611.7220926874317
 20
405.0
 30
0.0
 10
-611.7220926874317
 20
395.0
 30
0.0
  0
SPLINE
  5
128
330
1F
100
AcDbEntity
  8
Linee visibili 2D
100
AcDbSpline
210
0.0
220
0.0
230
1.0
 70
    12
 71
     2
 72
     6
 73
     3
 74
     0
 42
0.0000000001
 43
0.0000000001
 40
0.0
 40
0.0
 40
0.0
 40
7.853981633974963
 40
7.853981633974963
 40
7.853981633974963
 10
-611.7220926874317
 20
395.0
 30
0.0
 41
1.0
 10
-611.7220926874312
 20
389.9999999999992
 30
0.0
 41
0.7071067811864632
 10
-616.7220926874321
 20
390.0
 30
0.0
 41
1.0
  0
SPLINE
  5
129
330
1F
100
AcDbEntity
  8
Linee visibili 2D
100
AcDbSpline
210
0.0
220
0.0
230
1.0
 70
    24
 71
     2
 72
     6
 73
     3
 74
     0
 42
0.0000000001
 43
0.0000000001
 40
-94.99999999999976
 40
-94.99999999999976
 40
-94.99999999999976
 40
0.0
 40
0.0
 40
0.0
 10
-616.7220926874321
 20
390.0
 30
0.0
 10
-664.222092687432
 20
390.0
 30
0.0
 10
-711.722092687432
 20
390.0
 30
0.0
  0
SPLINE
  5
12A
330
1F
100
AcDbEntity
  8
Linee visibili 2D
100
AcDbSpline
210
0.0
220
0.0
230
1.0
 70
    24
 71
     2
 72
     6
 73
     3
 74
     0
 42
0.0000000001
 43
0.0000000001
 40
-300.0000000000001
 40
-300.0000000000001
 40
-300.0000000000001
 40
0.0
 40
0.0
 40
0.0
 10
-711.722092687432
 20
390.0
 30
0.0
 10
-861.722092687432
 20
390.0
 30
0.0
 10
-1011.722092687432
 20
390.0
 30
0.0
  0
SPLINE
  5
12B
330
1F
100
AcDbEntity
  8
Linee visibili 2D
100
AcDbSpline
210
0.0
220
0.0
230
1.0
 70
    24
 71
     2
 72
     6
 73
     3
 74
     0
 42
0.0000000001
 43
0.0000000001
 40
-95.00000000000023
 40
-95.00000000000023
 40
-95.00000000000023
 40
0.0
 40
0.0
 40
0.0
 10
-1011.722092687432
 20
390.0
 30
0.0
 10
-1059.222092687432
 20
390.0
 30
0.0
 10
-1106.722092687432
 20
390.0
 30
0.0
  0
SPLINE
  5
12C
330
1F
100
AcDbEntity
  8
Linee visibili 2D
100
AcDbSpline
210
0.0
220
0.0
230
1.0
 70
    12
 71
     2
 72
     6
 73
     3
 74
     0
 42
0.0000000001
 43
0.0000000001
 40
-7.853981633974469
 40
-7.853981633974469
 40
-7.853981633974469
 40
0.0
 40
0.0
 40
0.0
 10
-1106.722092687432
 20
390.0
 30
0.0
 41
1.0
 10
-1111.722092687432
 20
390.0000000000002
 30
0.0
 41
0.707106781186546
 10
-1111.722092687432
 20
395.0
 30
0.0
 41
1.0
  0
SPLINE
  5
12D
330
1F
100
AcDbEntity
  8
Linee visibili 2D
100
AcDbSpline
210
0.0
220
0.0
230
1.0
 70
    24
 71
     2
 72
     6
 73
     3
 74
     0
 42
0.0000000001
 43
0.0000000001
 40
0.0
 40
0.0
 40
0.0
 40
20.0
 40
20.0
 40
20.0
 10
-1111.722092687432
 20
395.0
 30
0.0
 10
-1111.722092687432
 20
405.0
 30
0.0
 10
-1111.722092687432
 20
415.0
 30
0.0
  0
SPLINE
  5
12E
330
1F
100
AcDbEntity
  8
Linee visibili 2D
100
AcDbSpline
210
0.0
220
0.0
230
1.0
 70
    24
 71
     2
 72
     6
 73
     3
 74
     0
 42
0.0000000001
 43
0.0000000001
 40
0.0
 40
0.0
 40
0.0
 40
100.0
 40
100.0
 40
100.0
 10
-1111.722092687432
 20
415.0
 30
0.0
 10
-1061.722092687432
 20
415.0
 30
0.0
 10
-1011.722092687432
 20
415.0
 30
0.0
  0
SPLINE
  5
12F
330
1F
100
AcDbEntity
  8
Linee visibili 2D
100
AcDbSpline
210
0.0
220
0.0
230
1.0
 70
    24
 71
     2
 72
     6
 73
     3
 74
     0
 42
0.0000000001
 43
0.0000000001
 40
0.0
 40
0.0
 40
0.0
 40
300.0000000000001
 40
300.0000000000001
 40
300.0000000000001
 10
-1011.722092687432
 20
415.0
 30
0.0
 10
-861.722092687432
 20
415.0
 30
0.0
 10
-711.722092687432
 20
415.0
 30
0.0
  0
SPLINE
  5
130
330
1F
100
AcDbEntity
  8
Linee visibili 2D
100
AcDbSpline
210
0.0
220
0.0
230
1.0
 70
    24
 71
     2
 72
     6
 73
     3
 74
     0
 42
0.0000000001
 43
0.0000000001
 40
0.0
 40
0.0
 40
0.0
 40
100.0
 40
100.0
 40
100.0
 10
-711.722092687432
 20
415.0
 30
0.0
 10
-661.7220926874319
 20
415.0
 30
0.0
 10
-611.7220926874319
 20
415.0
 30
0.0
  0
SPLINE
  5
131
330
1F
100
AcDbEntity
  8
Linee visibili 2D
100
AcDbSpline
210
0.0
220
0.0
230
1.0
 70
    12
 71
     2
 72
     6
 73
     3
 74
     0
 42
0.0000000001
 43
0.0000000001
 40
0.0
 40
0.0
 40
0.0
 40
7.85398163397406
 40
7.85398163397406
 40
7.85398163397406
 10
-611.7220926874319
 20
415.0
 30
0.0
 41
1.0
 10
-611.7220926874322
 20
419.9999999999997
 30
0.0
 41
0.7071067811865838
 10
-616.7220926874318
 20
420.0
 30
0.0
 41
1.0
  0
SPLINE
  5
132
330
1F
100
AcDbEntity
  8
Linee visibili 2D
100
AcDbSpline
210
0.0
220
0.0
230
1.0
 70
    24
 71
     2
 72
     6
 73
     3
 74
     0
 42
0.0000000001
 43
0.0000000001
 40
0.0
 40
0.0
 40
0.0
 40
95.00000000000012
 40
95.00000000000012
 40
95.00000000000012
 10
-616.7220926874318
 20
420.0
 30
0.0
 10
-664.2220926874317
 20
420.0
 30
0.0
 10
-711.7220926874317
 20
420.0
 30
0.0
  0
SPLINE
  5
133
330
1F
100
AcDbEntity
  8
Linee visibili 2D
100
AcDbSpline
210
0.0
220
0.0
230
1.0
 70
    24
 71
     2
 72
     6
 73
     3
 74
     0
 42
0.0000000001
 43
0.0000000001
 40
0.0
 40
0.0
 40
0.0
 40
299.9999999999995
 40
299.9999999999995
 40
299.9999999999995
 10
-711.7220926874317
 20
420.0
 30
0.0
 10
-861.7220926874315
 20
420.0
 30
0.0
 10
-1011.722092687431
 20
420.0
 30
0.0
  0
SPLINE
  5
134
330
1F
100
AcDbEntity
  8
Linee visibili 2D
100
AcDbSpline
210
0.0
220
0.0
230
1.0
 70
    24
 71
     2
 72
     6
 73
     3
 74
     0
 42
0.0000000001
 43
0.0000000001
 40
0.0
 40
0.0
 40
0.0
 40
95.00000000000069
 40
95.00000000000069
 40
95.00000000000069
 10
-1011.722092687431
 20
420.0
 30
0.0
 10
-1059.222092687432
 20
420.0
 30
0.0
 10
-1106.722092687432
 20
420.0
 30
0.0
  0
SPLINE
  5
135
330
1F
100
AcDbEntity
  8
Linee visibili 2D
100
AcDbSpline
210
0.0
220
0.0
230
1.0
 70
    12
 71
     2
 72
     6
 73
     3
 74
     0
 42
0.0000000001
 43
0.0000000001
 40
0.0
 40
0.0
 40
0.0
 40
7.853981633974547
 40
7.853981633974547
 40
7.853981633974547
 10
-1106.722092687432
 20
420.0
 30
0.0
 41
1.0
 10
-1111.722092687432
 20
420.0000000000005
 30
0.0
 41
0.7071067811865178
 10
-1111.722092687432
 20
415.0
 30
0.0
 41
1.0
  0
SPLINE
  5
136
330
1F
100
AcDbEntity
  8
Linee visibili 2D - Tangent
100
AcDbSpline
210
0.0
220
0.0
230
1.0
 70
    24
 71
     2
 72
     6
 73
     3
 74
     0
 42
0.0000000001
 43
0.0000000001
 40
0.0
 40
0.0
 40
0.0
 40
99.9999999997591
 40
99.9999999997591
 40
99.9999999997591
 10
-611.7220926876727
 20
395.0
 30
0.0
 10
-661.7220926875522
 20
395.0
 30
0.0
 10
-711.7220926874317
 20
395.0
 30
0.0
  0
SPLINE
  5
137
330
1F
100
AcDbEntity
  8
Linee visibili 2D - Tangent
100
AcDbSpline
210
0.0
220
0.0
230
1.0
 70
    24
 71
     2
 72
     6
 73
     3
 74
     0
 42
0.0000000001
 43
0.0000000001
 40
0.0
 40
0.0
 40
0.0
 40
299.9999999999998
 40
299.9999999999998
 40
299.9999999999998
 10
-711.7220926874317
 20
395.0
 30
0.0
 10
-861.7220926874317
 20
395.0
 30
0.0
 10
-1011.722092687432
 20
395.0
 30
0.0
  0
SPLINE
  5
138
330
1F
100
AcDbEntity
  8
Linee visibili 2D - Tangent
100
AcDbSpline
210
0.0
220
0.0
230
1.0
 70
    24
 71
     2
 72
     6
 73
     3
 74
     0
 42
0.0000000001
 43
0.0000000001
 40
0.0
 40
0.0
 40
0.0
 40
100.0000000000006
 40
100.0000000000006
 40
100.0000000000006
 10
-1011.722092687432
 20
395.0
 30
0.0
 10
-1061.722092687432
 20
395.0
 30
0.0
 10
-1111.722092687432
 20
395.0
 30
0.0
  0
SPLINE
  5
139
330
1F
100
AcDbEntity
  8
Linee visibili 2D
100
AcDbSpline
210
0.0
220
0.0
230
1.0
 70
    12
 71
     2
 72
     6
 73
     3
 74
     0
 42
0.0000000001
 43
0.0000000001
 40
-7.80108936578025
 40
-7.80108936578025
 40
-7.80108936578025
 40
0.0
 40
0.0
 40
0.0
 10
-1106.669201405705
 20
389.9997202434056
 30
0.0
 41
1.0
 10
-1101.722092687432
 20
389.9473855310193
 30
0.0
 41
0.7108369209408339
 10
-1101.722092687432
 20
385.0
 30
0.0
 41
1.0
  0
SPLINE
  5
13A
330
1F
100
AcDbEntity
  8
Linee visibili 2D
100
AcDbSpline
210
0.0
220
0.0
230
1.0
 70
    24
 71
     2
 72
     6
 73
     3
 74
     0
 42
0.0000000001
 43
0.0000000001
 40
0.0
 40
0.0
 40
0.0
 40
10.74071327299998
 40
10.74071327299998
 40
10.74071327299998
 10
-1101.722092687432
 20
385.0
 30
0.0
 10
-1101.722092687432
 20
379.6296433635
 30
0.0
 10
-1101.722092687432
 20
374.2592867269999
 30
0.0
  0
SPLINE
  5
13B
330
1F
100
AcDbEntity
  8
Linee visibili 2D
100
AcDbSpline
210
0.0
220
0.0
230
1.0
 70
    12
 71
     3
 72
    12
 73
     8
 74
     0
 42
0.0000000001
 43
0.0000000001
 40
0.0
 40
0.0
 40
0.0
 40
0.0
 40
0.2429124277635186
 40
0.2429124277635186
 40
0.3757667860936322
 40
0.3757667860936322
 40
0.4903513844893456
 40
0.4903513844893456
 40
0.4903513844893456
 40
0.4903513844893456
 10
-757.4441722713757
 20
297.196103197304
 30
0.0
 41
1.0
 10
-756.9168578212647
 20
294.822301706309
 30
0.0
 41
1.0
 10
-757.2011322825764
 20
291.8609881839075
 30
0.0
 41
1.0
 10
-757.9352374434766
 20
287.2371533343687
 30
0.0
 41
1.0
 10
-758.2591512686175
 20
285.5605222138729
 30
0.0
 41
1.0
 10
-758.8718228509202
 20
282.3314254602301
 30
0.0
 41
1.0
 10
-759.1560906098029
 20
280.8103714961226
 30
0.0
 41
1.0
 10
-759.3893410972652
 20
279.2480660302419
 30
0.0
 41
1.0
  0
SPLINE
  5
13C
330
1F
100
AcDbEntity
  8
Linee visibili 2D
100
AcDbSpline
210
0.0
220
0.0
230
1.0
 70
    12
 71
     2
 72
     6
 73
     3
 74
     0
 42
0.0000000001
 43
0.0000000001
 40
0.0
 40
0.0
 40
0.0
 40
0.0397971232607941
 40
0.0397971232607941
 40
0.0397971232607941
 10
-759.3893410972652
 20
279.2480660302419
 30
0.0
 41
1.0
 10
-759.3922062112773
 20
279.2283746669615
 30
0.0
 41
0.9999999611204856
 10
-759.3952085880666
 20
279.2087037694514
 30
0.0
 41
1.0
  0
SPLINE
  5
13D
330
1F
100
AcDbEntity
  8
Linee visibili 2D
100
AcDbSpline
210
0.0
220
0.0
230
1.0
 70
    12
 71
     2
 72
     7
 73
     4
 74
     0
 42
0.0000000001
 43
0.0000000001
 40
0.0
 40
0.0
 40
0.0
 40
0.2863135966397047
 40
11.34817505311899
 40
11.34817505311899
 40
11.34817505311899
 10
-759.3952085880666
 20
279.2087037694515
 30
0.0
 41
0.9999999999999998
 10
-759.416345071233
 20
279.0671156649642
 30
0.0
 41
0.9999975187405315
 10
-760.2260890938035
 20
273.4516443150339
 30
0.0
 41
1.000095864635137
 10
-759.2981584545967
 20
268.1714305530159
 30
0.0
 41
1.0
  0
SPLINE
  5
13E
330
1F
100
AcDbEntity
  8
Linee visibili 2D
100
AcDbSpline
210
0.0
220
0.0
230
1.0
 70
    12
 71
     3
 72
    10
 73
     6
 74
     0
 42
0.0000000001
 43
0.0000000001
 40
3.263874618368836
 40
3.263874618368836
 40
3.263874618368836
 40
3.263874618368836
 40
3.386656614723431
 40
3.386656614723431
 40
3.511656614723431
 40
3.511656614723431
 40
3.511656614723431
 40
3.511656614723431
 10
-759.2981584545967
 20
268.1714305530159
 30
0.0
 41
1.0
 10
-758.875168966367
 20
266.4148243169291
 30
0.0
 41
1.0
 10
-758.1764880769451
 20
264.6616917812671
 30
0.0
 41
1.0
 10
-756.2784328981426
 20
261.4366310557427
 30
0.0
 41
1.0
 10
-755.0962843616607
 20
259.9739175870004
 30
0.0
 41
1.0
 10
-753.7324307453182
 20
258.6446942199514
 30
0.0
 41
1.0
  0
SPLINE
  5
13F
330
1F
100
AcDbEntity
  8
Linee visibili 2D
100
AcDbSpline
210
0.0
220
0.0
230
1.0
 70
    12
 71
     3
 72
    10
 73
     6
 74
     0
 42
0.0000000001
 43
0.0000000001
 40
1.0
 40
1.0
 40
1.0
 40
1.0
 40
1.5
 40
1.5
 40
2.0
 40
2.0
 40
2.0
 40
2.0
 10
-753.7324307453182
 20
258.6446942199514
 30
0.0
 41
1.0
 10
-758.9625873693178
 20
257.2408654552653
 30
0.0
 41
1.0
 10
-764.251400939775
 20
256.1540051341535
 30
0.0
 41
1.0
 10
-774.9559743539122
 20
254.6660579347465
 30
0.0
 41
1.0
 10
-780.3713854776217
 20
254.2630602503586
 30
0.0
 41
1.0
 10
-785.8613636974317
 20
254.263035851
 30
0.0
 41
1.0
  0
SPLINE
  5
140
330
1F
100
AcDbEntity
  8
Linee visibili 2D
100
AcDbSpline
210
0.0
220
0.0
230
1.0
 70
    24
 71
     2
 72
     6
 73
     3
 74
     0
 42
0.0000000001
 43
0.0000000001
 40
0.0
 40
0.0
 40
0.0
 40
135.8607289906756
 40
135.8607289906756
 40
135.8607289906756
 10
-785.8613636974317
 20
254.263035851
 30
0.0
 10
-853.7917281924311
 20
254.262821472
 30
0.0
 10
-921.7220926874304
 20
254.262607093
 30
0.0
  0
SPLINE
  5
141
330
1F
100
AcDbEntity
  8
Linee visibili 2D
100
AcDbSpline
210
0.0
220
0.0
230
1.0
 70
     8
 71
     3
 72
    17
 73
    13
 74
     0
 42
0.0000000001
 43
0.0000000001
 40
0.0
 40
0.0
 40
0.0
 40
0.0
 40
3.657994244584231
 40
7.29298028710754
 40
11.32573425973084
 40
15.2914236861551
 40
17.47776170889142
 40
19.64779832497567
 40
24.32547862175226
 40
26.8344530112758
 40
29.32025534651653
 40
34.63905090413415
 40
34.63905090413415
 40
34.63905090413415
 40
34.63905090413415
 10
-921.7220926874304
 20
254.262607093
 30
0.0
 10
-922.9416578344773
 20
254.262884014089
 30
0.0
 10
-925.371591910366
 20
254.0880935404591
 30
0.0
 10
-929.0784365032735
 20
253.3321877477836
 30
0.0
 10
-932.7534686180932
 20
252.0700447139313
 30
0.0
 10
-935.8190224563623
 20
250.6002632938264
 30
0.0
 10
-938.222359415888
 20
249.2134669643019
 30
0.0
 10
-940.7576738085063
 20
247.5866720259378
 30
0.0
 10
-943.261669837223
 20
245.7223943852582
 30
0.0
 10
-945.7290061820669
 20
243.6462602349466
 30
0.0
 10
-948.2785891621169
 20
241.3391392758203
 30
0.0
 10
-950.1127803456142
 20
239.4920999165781
 30
0.0
 10
-951.324836615932
 20
238.1982878745
 30
0.0
  0
SPLINE
  5
142
330
1F
100
AcDbEntity
  8
Linee visibili 2D
100
AcDbSpline
210
0.0
220
0.0
230
1.0
 70
     8
 71
     3
 72
    20
 73
    16
 74
     0
 42
0.0000000001
 43
0.0000000001
 40
0.0
 40
0.0
 40
0.0
 40
0.0
 40
2.835734572330102
 40
5.580766495658206
 40
11.24923605347202
 40
17.05696294400953
 40
19.56653164726991
 40
21.13345193916073
 40
23.64097994202747
 40
24.49496648207996
 40
25.88881644290114
 40
26.49124767906072
 40
26.94873616732867
 40
27.26026269476805
 40
27.43362577770066
 40
27.43362577770066
 40
27.43362577770066
 40
27.43362577770066
 10
-951.324836615932
 20
238.1982878745
 30
0.0
 10
-951.9710828015016
 20
237.508473676455
 30
0.0
 10
-953.2579327712207
 20
236.1649525461271
 30
0.0
 10
-955.9107001647557
 20
233.5144961604642
 30
0.0
 10
-959.3732743142068
 20
230.2751686986762
 30
0.0
 10
-962.9145049889327
 20
227.2415480572872
 30
0.0
 10
-965.4751848698849
 20
225.1682284948783
 30
0.0
 10
-967.1947475122866
 20
223.8045077080189
 30
0.0
 10
-968.490092638844
 20
222.7940526500913
 30
0.0
 10
-969.7350808804698
 20
221.8129964867715
 30
0.0
 10
-970.4756478410768
 20
221.2175758042381
 30
0.0
 10
-971.0937457924453
 20
220.6818212559647
 30
0.0
 10
-971.4250096149907
 20
220.3661906112436
 30
0.0
 10
-971.633895914017
 20
220.1315789481525
 30
0.0
 10
-971.717449281115
 20
219.9903885553776
 30
0.0
 10
-971.7220926874702
 20
219.931357312
 30
0.0
  0
SPLINE
  5
143
330
1F
100
AcDbEntity
  8
Linee visibili 2D
100
AcDbSpline
210
0.0
220
0.0
230
1.0
 70
    24
 71
     2
 72
     6
 73
     3
 74
     0
 42
0.0000000001
 43
0.0000000001
 40
0.0
 40
0.0
 40
0.0
 40
141.6470860645381
 40
141.6470860645381
 40
141.6470860645381
 10
-971.7220926874702
 20
219.931357312
 30
0.0
 10
-971.7220926874071
 20
149.107814279731
 30
0.0
 10
-971.7220926873443
 20
78.28427124746191
 30
0.0
  0
SPLINE
  5
144
330
1F
100
AcDbEntity
  8
Linee visibili 2D
100
AcDbSpline
210
0.0
220
0.0
230
1.0
 70
    24
 71
     2
 72
     6
 73
     3
 74
     0
 42
0.0000000001
 43
0.0000000001
 40
0.0
 40
0.0
 40
0.0
 40
49.99999999991252
 40
49.99999999991252
 40
49.99999999991252
 10
-971.7220926873443
 20
78.28427124746191
 30
0.0
 10
-946.722092687388
 20
78.284271247231
 30
0.0
 10
-921.722092687432
 20
78.28427124700009
 30
0.0
  0
SPLINE
  5
145
330
1F
100
AcDbEntity
  8
Linee visibili 2D
100
AcDbSpline
210
0.0
220
0.0
230
1.0
 70
    24
 71
     2
 72
     6
 73
     3
 74
     0
 42
0.0000000001
 43
0.0000000001
 40
0.0
 40
0.0
 40
0.0
 40
401.7157287529999
 40
401.7157287529999
 40
401.7157287529999
 10
-921.722092687432
 20
78.28427124700009
 30
0.0
 10
-720.8642283109317
 20
78.28427124700009
 30
0.0
 10
-520.0063639344318
 20
78.28427124700009
 30
0.0
  0
SPLINE
  5
146
330
1F
100
AcDbEntity
  8
Linee visibili 2D
100
AcDbSpline
210
0.0
220
0.0
230
1.0
 70
    24
 71
     2
 72
     6
 73
     3
 74
     0
 42
0.0000000001
 43
0.0000000001
 40
0.0
 40
0.0
 40
0.0
 40
151.7157287531154
 40
151.7157287531154
 40
151.7157287531154
 10
-520.0063639344318
 20
78.28427124700009
 30
0.0
 10
-520.0063639344896
 20
154.1421356235578
 30
0.0
 10
-520.0063639345473
 20
230.0000000001155
 30
0.0
  0
SPLINE
  5
147
330
1F
100
AcDbEntity
  8
Linee visibili 2D
100
AcDbSpline
210
0.0
220
0.0
230
1.0
 70
    24
 71
     2
 72
     6
 73
     3
 74
     0
 42
0.0000000001
 43
0.0000000001
 40
-182.5242365558845
 40
-182.5242365558845
 40
-182.5242365558845
 40
0.0
 40
0.0
 40
0.0
 10
-520.0063639345473
 20
230.0000000001155
 30
0.0
 10
-611.2684822124896
 20
230.0000000000578
 30
0.0
 10
-702.5306004904319
 20
230.0
 30
0.0
  0
SPLINE
  5
148
330
1F
100
AcDbEntity
  8
Linee visibili 2D
100
AcDbSpline
210
0.0
220
0.0
230
1.0
 70
    24
 71
     2
 72
     6
 73
     3
 74
     0
 42
0.0000000001
 43
0.0000000001
 40
0.0
 40
0.0
 40
0.0
 40
50.0
 40
50.0
 40
50.0
 10
-702.5306004904319
 20
230.0
 30
0.0
 10
-702.5306004903732
 20
255.0
 30
0.0
 10
-702.5306004903147
 20
280.0
 30
0.0
  0
SPLINE
  5
149
330
1F
100
AcDbEntity
  8
Linee visibili 2D - Tangent
100
AcDbSpline
210
0.0
220
0.0
230
1.0
 70
    24
 71
     2
 72
     6
 73
     3
 74
     0
 42
0.0000000001
 43
0.0000000001
 40
-49.91258785754158
 40
-49.91258785754158
 40
-49.91258785754158
 40
0.0
 40
0.0
 40
0.0
 10
-711.2057360754318
 20
284.774115704
 30
0.0
 10
-732.469083410375
 20
271.7094049619757
 30
0.0
 10
-753.7324307453182
 20
258.6446942199514
 30
0.0
  0
SPLINE
  5
14A
330
1F
100
AcDbEntity
  8
Linee visibili 2D - Tangent
100
AcDbSpline
210
0.0
220
0.0
230
1.0
 70
     8
 71
     3
 72
    15
 73
    11
 74
     0
 42
0.0000000001
 43
0.0000000001
 40
0.0
 40
0.0
 40
0.0
 40
0.0
 40
7.671635228172167
 40
15.29912009392656
 40
22.9929248127207
 40
30.642038125238
 40
38.28707633961112
 40
45.98429319775266
 40
53.61765364056576
 40
61.29125337028918
 40
61.29125337028918
 40
61.29125337028918
 40
61.29125337028918
 10
-753.7324307453182
 20
258.6446942199514
 30
0.0
 10
-752.3937705232736
 20
256.4658565578645
 30
0.0
 10
-749.4463480551369
 20
252.2914398527093
 30
0.0
 10
-744.2568248382029
 20
246.630410079463
 30
0.0
 10
-738.3956720017553
 20
241.6792517491685
 30
0.0
 10
-731.9473921827245
 20
237.5110224076095
 30
0.0
 10
-725.0213216208319
 20
234.1941865887404
 30
0.0
 10
-717.7341159027515
 20
231.7877170334061
 30
0.0
 10
-710.190774509373
 20
230.3264991198384
 30
0.0
 10
-705.0884688089595
 20
229.9999377582296
 30
0.0
 10
-702.5306004904319
 20
230.0
 30
0.0
  0
SPLINE
  5
14B
330
1F
100
AcDbEntity
  8
Linee visibili 2D
100
AcDbSpline
210
0.0
220
0.0
230
1.0
 70
    12
 71
     2
 72
     6
 73
     3
 74
     0
 42
0.0000000001
 43
0.0000000001
 40
-36.72943128655123
 40
-36.72943128655123
 40
-36.72943128655123
 40
0.0
 40
0.0
 40
0.0
 10
-649.185214345853
 20
369.9993372328838
 30
0.0
 41
1.0
 10
-670.2487539448719
 20
369.8593229707622
 30
0.0
 41
0.8184122638980145
 10
-677.2702237397377
 20
349.9999006011835
 30
0.0
 41
1.0
  0
SPLINE
  5
14C
330
1F
100
AcDbEntity
  8
Linee visibili 2D
100
AcDbSpline
210
0.0
220
0.0
230
1.0
 70
    12
 71
     2
 72
     6
 73
     3
 74
     0
 42
0.0000000001
 43
0.0000000001
 40
0.0
 40
0.0
 40
0.0
 40
56.4803005825687
 40
56.4803005825687
 40
56.4803005825687
 10
-677.2702237397377
 20
349.9999006011835
 30
0.0
 41
1.0
 10
-686.7965875349179
 20
323.0556655168151
 30
0.0
 41
0.9823304027988834
 10
-705.5627676732193
 20
301.501858871301
 30
0.0
 41
1.0
  0
SPLINE
  5
14D
330
1F
100
AcDbEntity
  8
Linee visibili 2D
100
AcDbSpline
210
0.0
220
0.0
230
1.0
 70
    12
 71
     2
 72
     7
 73
     4
 74
     0
 42
0.0000000001
 43
0.0000000001
 40
0.0
 40
0.0
 40
0.0
 40
6.243360224243938
 40
19.85664039038089
 40
19.85664039038089
 40
19.85664039038089
 10
-705.5627676732193
 20
301.5018588713011
 30
0.0
 41
0.9999999999999722
 10
-707.6129332536051
 20
299.1471770139174
 30
0.0
 41
0.9997831140786137
 10
-714.4364294631991
 20
291.9397667128558
 30
0.0
 41
1.000472907009346
 10
-711.205736075432
 20
284.774115704
 30
0.0
 41
1.0
  0
SPLINE
  5
14E
330
1F
100
AcDbEntity
  8
Linee visibili 2D
100
AcDbSpline
210
0.0
220
0.0
230
1.0
 70
     8
 71
     3
 72
    12
 73
     8
 74
     0
 42
0.0000000001
 43
0.0000000001
 40
-10.32124728094
 40
-10.32124728094
 40
-10.32124728094
 40
-10.32124728094
 40
-7.696269040669633
 40
-5.107751113388269
 40
-2.562896266172987
 40
-1.284022846140139
 40
0.0
 40
0.0
 40
0.0
 40
0.0
 10
-711.205736075432
 20
284.774115704
 30
0.0
 10
-710.7270727030733
 20
284.0416844427828
 30
0.0
 10
-709.6000939077521
 20
282.7019359650112
 30
0.0
 10
-707.4896795963542
 20
281.1732846641851
 30
0.0
 10
-705.488128532022
 20
280.3771650987946
 30
0.0
 10
-703.8128554208103
 20
280.054658694561
 30
0.0
 10
-702.9586308249189
 20
279.9999108715501
 30
0.0
 10
-702.5306004903147
 20
280.0
 30
0.0
  0
SPLINE
  5
14F
330
1F
100
AcDbEntity
  8
Linee visibili 2D
100
AcDbSpline
210
0.0
220
0.0
230
1.0
 70
    24
 71
     2
 72
     6
 73
     3
 74
     0
 42
0.0000000001
 43
0.0000000001
 40
0.0
 40
0.0
 40
0.0
 40
182.5242365557673
 40
182.5242365557673
 40
182.5242365557673
 10
-702.5306004903147
 20
280.0
 30
0.0
 10
-611.268482212431
 20
280.0000000000127
 30
0.0
 10
-520.0063639345473
 20
280.0000000000255
 30
0.0
  0
SPLINE
  5
150
330
1F
100
AcDbEntity
  8
Linee visibili 2D
100
AcDbSpline
210
0.0
220
0.0
230
1.0
 70
    24
 71
     2
 72
     6
 73
     3
 74
     0
 42
0.0000000001
 43
0.0000000001
 40
-49.99999999990997
 40
-49.99999999990997
 40
-49.99999999990997
 40
0.0
 40
0.0
 40
0.0
 10
-520.0063639345473
 20
280.0000000000255
 30
0.0
 10
-520.0063639345473
 20
255.0000000000705
 30
0.0
 10
-520.0063639345473
 20
230.0000000001155
 30
0.0
  0
SPLINE
  5
151
330
1F
100
AcDbEntity
  8
Linee visibili 2D
100
AcDbSpline
210
0.0
220
0.0
230
1.0
 70
    24
 71
     2
 72
     6
 73
     3
 74
     0
 42
0.0000000001
 43
0.0000000001
 40
0.0
 40
0.0
 40
0.0
 40
5.0
 40
5.0
 40
5.0
 10
-461.7220926874319
 20
25.0
 30
0.0
 10
-461.7220926874319
 20
27.5
 30
0.0
 10
-461.7220926874319
 20
30.0
 30
0.0
  0
SPLINE
  5
152
330
1F
100
AcDbEntity
  8
Linee visibili 2D
100
AcDbSpline
210
0.0
220
0.0
230
1.0
 70
    24
 71
     2
 72
     6
 73
     3
 74
     0
 42
0.0000000001
 43
0.0000000001
 40
-5.0
 40
-5.0
 40
-5.0
 40
0.0
 40
0.0
 40
0.0
 10
-461.7220926874319
 20
30.0
 30
0.0
 10
-461.7220926874319
 20
32.5
 30
0.0
 10
-461.7220926874319
 20
35.0
 30
0.0
  0
SPLINE
  5
153
330
1F
100
AcDbEntity
  8
Linee visibili 2D
100
AcDbSpline
210
0.0
220
0.0
230
1.0
 70
    12
 71
     2
 72
     6
 73
     3
 74
     0
 42
0.0000000001
 43
0.0000000001
 40
-5.639426412998428
 40
-5.639426412998428
 40
-5.639426412998428
 40
0.0
 40
0.0
 40
0.0
 10
-991.7220926873802
 20
46.66149464594446
 30
0.0
 41
1.0
 10
-991.72209268726
 20
49.82377230574297
 30
0.0
 41
0.84515425473963
 10
-988.8649498304559
 20
51.17903415995261
 30
0.0
 41
1.0
  0
SPLINE
  5
154
330
1F
100
AcDbEntity
  8
Linee visibili 2D
100
AcDbSpline
210
0.0
220
0.0
230
1.0
 70
    24
 71
     2
 72
     6
 73
     3
 74
     0
 42
0.0000000001
 43
0.0000000001
 40
-67.14285714317657
 40
-67.14285714317657
 40
-67.14285714317657
 40
0.0
 40
0.0
 40
0.0
 10
-988.8649498304559
 20
51.17903415995261
 30
0.0
 10
-955.2935212588677
 20
51.17903416002899
 30
0.0
 10
-921.7220926872792
 20
51.1790341601054
 30
0.0
  0
SPLINE
  5
155
330
1F
100
AcDbEntity
  8
Linee visibili 2D
100
AcDbSpline
210
0.0
220
0.0
230
1.0
 70
    24
 71
     2
 72
     6
 73
     3
 74
     0
 42
0.0000000001
 43
0.0000000001
 40
0.0
 40
0.0
 40
0.0
 40
409.6545979375998
 40
409.6545979375998
 40
409.6545979375998
 10
-921.7220926872792
 20
51.1790341601054
 30
0.0
 10
-716.8947937184806
 20
51.17905582467767
 30
0.0
 10
-512.0674947496818
 20
51.17907748924995
 30
0.0
  0
SPLINE
  5
156
330
1F
100
AcDbEntity
  8
Linee visibili 2D
100
AcDbSpline
210
0.0
220
0.0
230
1.0
 70
     8
 71
     3
 72
    18
 73
    14
 74
     0
 42
0.0000000001
 43
0.0000000001
 40
0.0
 40
0.0
 40
0.0
 40
0.0
 40
1.892811632229524
 40
3.798524621038533
 40
7.57965883563162
 40
11.36542156659584
 40
15.13313224548947
 40
17.02812214788158
 40
18.92149738098575
 40
22.68618633615882
 40
26.46940649216736
 40
28.3560577370947
 40
30.24255784734104
 40
30.24255784734104
 40
30.24255784734104
 40
30.24255784734104
 10
-512.0674947496818
 20
51.17907748924995
 30
0.0
 10
-511.4365776365908
 20
51.17270822011186
 30
0.0
 10
-510.1698909273672
 20
51.22117994816381
 30
0.0
 10
-507.6631557480541
 20
51.56057116488819
 30
0.0
 10
-504.6163510465266
 20
52.44714421322692
 30
0.0
 10
-501.2536466417288
 20
54.21132557661373
 30
0.0
 10
-498.8016415517058
 20
56.21359836441389
 30
0.0
 10
-497.113795918566
 20
58.0874684799287
 30
0.0
 10
-495.6218592774843
 20
60.11958201543871
 30
0.0
 10
-494.1582076457568
 20
62.92352774215395
 30
0.0
 10
-493.2794426303465
 20
65.95930149730475
 30
0.0
 10
-492.9424994914491
 20
68.45839874764647
 30
0.0
 10
-492.8949743148687
 20
69.71672161972492
 30
0.0
 10
-492.9011618591819
 20
70.3454984970001
 30
0.0
  0
SPLINE
  5
157
330
1F
100
AcDbEntity
  8
Linee visibili 2D
100
AcDbSpline
210
0.0
220
0.0
230
1.0
 70
    24
 71
     2
 72
     6
 73
     3
 74
     0
 42
0.0000000001
 43
0.0000000001
 40
-159.6545015029436
 40
-159.6545015029436
 40
-159.6545015029436
 40
0.0
 40
0.0
 40
0.0
 10
-492.9011618591819
 20
70.3454984970001
 30
0.0
 10
-492.9011443534222
 20
150.17274924847
 30
0.0
 10
-492.9011268476626
 20
229.99999999994
 30
0.0
  0
SPLINE
  5
158
330
1F
100
AcDbEntity
  8
Linee visibili 2D
100
AcDbSpline
210
0.0
220
0.0
230
1.0
 70
    24
 71
     2
 72
     6
 73
     3
 74
     0
 42
0.0000000001
 43
0.0000000001
 40
-67.14285714302582
 40
-67.14285714302582
 40
-67.14285714302582
 40
0.0
 40
0.0
 40
0.0
 10
-492.9011268476626
 20
229.99999999994
 30
0.0
 10
-492.9011268478147
 20
263.5714285714529
 30
0.0
 10
-492.9011268479666
 20
297.1428571429658
 30
0.0
  0
SPLINE
  5
159
330
1F
100
AcDbEntity
  8
Linee visibili 2D
100
AcDbSpline
210
0.0
220
0.0
230
1.0
 70
    12
 71
     2
 72
     6
 73
     3
 74
     0
 42
0.0000000001
 43
0.0000000001
 40
-5.639426413759562
 40
-5.639426413759562
 40
-5.639426413759562
 40
0.0
 40
0.0
 40
0.0
 10
-492.9011268479666
 20
297.1428571429658
 30
0.0
 41
1.0
 10
-491.54586499355
 20
300.0000000002095
 30
0.0
 41
0.8451542547168006
 10
-488.3835873332653
 20
300.0000000000614
 30
0.0
 41
1.0
  0
SPLINE
  5
15A
330
1F
100
AcDbEntity
  8
Linee visibili 2D
100
AcDbSpline
210
0.0
220
0.0
230
1.0
 70
    24
 71
     2
 72
     6
 73
     3
 74
     0
 42
0.0000000001
 43
0.0000000001
 40
-70.00000000011687
 40
-70.00000000011687
 40
-70.00000000011687
 40
0.0
 40
0.0
 40
0.0
 10
-488.3835873332653
 20
300.0000000000614
 30
0.0
 10
-488.3835873333208
 20
265.000000000003
 30
0.0
 10
-488.3835873333764
 20
229.9999999999445
 30
0.0
  0
SPLINE
  5
15B
330
1F
100
AcDbEntity
  8
Linee visibili 2D
100
AcDbSpline
210
0.0
220
0.0
230
1.0
 70
    24
 71
     2
 72
     6
 73
     3
 74
     0
 42
0.0000000001
 43
0.0000000001
 40
-159.654453355949
 40
-159.654453355949
 40
-159.654453355949
 40
0.0
 40
0.0
 40
0.0
 10
-488.3835873333764
 20
229.9999999999445
 30
0.0
 10
-488.3836062304042
 20
150.1727733219723
 30
0.0
 10
-488.3836251274318
 20
70.34554664400002
 30
0.0
  0
SPLINE
  5
15C
330
1F
100
AcDbEntity
  8
Linee visibili 2D
100
AcDbSpline
210
0.0
220
0.0
230
1.0
 70
     8
 71
     3
 72
    19
 73
    15
 74
     0
 42
0.0000000001
 43
0.0000000001
 40
0.0
 40
0.0
 40
0.0
 40
0.0
 40
2.334348478571607
 40
4.652106749370453
 40
9.316064760471491
 40
11.63977711462536
 40
13.95625837032949
 40
16.28994627836967
 40
18.62544784043119
 40
20.94454594398062
 40
23.26904847780008
 40
27.93545302460406
 40
32.59075149684637
 40
37.27787147721875
 40
37.27787147721875
 40
37.27787147721875
 40
37.27787147721875
 10
-488.3836251274318
 20
70.34554664400002
 30
0.0
 10
-488.3835559576549
 20
69.56745770508018
 30
0.0
 10
-488.4561287332511
 20
68.01662579479534
 30
0.0
 10
-488.8966556123388
 20
64.93919582026501
 30
0.0
 10
-489.7783213562265
 20
61.94986065883199
 30
0.0
 10
-491.0863095538883
 20
59.13347566430411
 30
0.0
 10
-492.2710874583519
 20
57.13011453766603
 30
0.0
 10
-493.6528631264072
 20
55.25213350408717
 30
0.0
 10
-495.2150332474928
 20
53.52036395309096
 30
0.0
 10
-496.94128470675
 20
51.95621367678449
 30
0.0
 10
-499.4415500193243
 20
50.11171538869189
 30
0.0
 10
-502.8911932741668
 20
48.2886504430071
 30
0.0
 10
-507.3909125451099
 20
46.95930097918949
 30
0.0
 10
-510.5050381189495
 20
46.66189172108284
 30
0.0
 10
-512.0674412474317
 20
46.66151354299996
 30
0.0
  0
SPLINE
  5
15D
330
1F
100
AcDbEntity
  8
Linee visibili 2D
100
AcDbSpline
210
0.0
220
0.0
230
1.0
 70
    24
 71
     2
 72
     6
 73
     3
 74
     0
 42
0.0000000001
 43
0.0000000001
 40
0.0
 40
0.0
 40
0.0
 40
409.6546514400562
 40
409.6546514400562
 40
409.6546514400562
 10
-512.0674412474317
 20
46.66151354299996
 30
0.0
 10
-716.8947669674595
 20
46.66150409447697
 30
0.0
 10
-921.7220926874876
 20
46.66149464595401
 30
0.0
  0
SPLINE
  5
15E
330
1F
100
AcDbEntity
  8
Linee visibili 2D
100
AcDbSpline
210
0.0
220
0.0
230
1.0
 70
    24
 71
     2
 72
     6
 73
     3
 74
     0
 42
0.0000000001
 43
0.0000000001
 40
-69.99999999989279
 40
-69.99999999989279
 40
-69.99999999989279
 40
0.0
 40
0.0
 40
0.0
 10
-921.7220926874876
 20
46.66149464595401
 30
0.0
 10
-956.7220926874338
 20
46.66149464594923
 30
0.0
 10
-991.7220926873802
 20
46.66149464594446
 30
0.0
  0
SPLINE
  5
15F
330
1F
100
AcDbEntity
  8
Linee visibili 2D
100
AcDbSpline
210
0.0
220
0.0
230
1.0
 70
    24
 71
     2
 72
     6
 73
     3
 74
     0
 42
0.0000000001
 43
0.0000000001
 40
0.0
 40
0.0
 40
0.0
 40
11.66149464594446
 40
11.66149464594446
 40
11.66149464594446
 10
-991.7220926873802
 20
46.66149464594446
 30
0.0
 10
-991.7220926874064
 20
40.83074732297222
 30
0.0
 10
-991.7220926874321
 20
35.0
 30
0.0
  0
SPLINE
  5
160
330
1F
100
AcDbEntity
  8
Linee visibili 2D
100
AcDbSpline
210
0.0
220
0.0
230
1.0
 70
    24
 71
     2
 72
     6
 73
     3
 74
     0
 42
0.0000000001
 43
0.0000000001
 40
0.0
 40
0.0
 40
0.0
 40
70.00000000000027
 40
70.00000000000027
 40
70.00000000000027
 10
-991.7220926874321
 20
35.0
 30
0.0
 10
-956.722092687432
 20
35.0
 30
0.0
 10
-921.722092687432
 20
35.0
 30
0.0
  0
SPLINE
  5
161
330
1F
100
AcDbEntity
  8
Linee visibili 2D
100
AcDbSpline
210
0.0
220
0.0
230
1.0
 70
    24
 71
     2
 72
     6
 73
     3
 74
     0
 42
0.0000000001
 43
0.0000000001
 40
0.0
 40
0.0
 40
0.0
 40
460.0
 40
460.0
 40
460.0
 10
-921.722092687432
 20
35.0
 30
0.0
 10
-691.7220926874319
 20
35.0
 30
0.0
 10
-461.7220926874319
 20
35.0
 30
0.0
  0
SPLINE
  5
162
330
1F
100
AcDbEntity
  8
Linee visibili 2D
100
AcDbSpline
210
0.0
220
0.0
230
1.0
 70
    24
 71
     2
 72
     6
 73
     3
 74
     0
 42
0.0000000001
 43
0.0000000001
 40
0.0
 40
0.0
 40
0.0
 40
195.0
 40
195.0
 40
195.0
 10
-461.7220926874319
 20
35.0
 30
0.0
 10
-461.7220926874319
 20
132.5
 30
0.0
 10
-461.7220926874319
 20
230.0
 30
0.0
  0
SPLINE
  5
163
330
1F
100
AcDbEntity
  8
Linee visibili 2D
100
AcDbSpline
210
0.0
220
0.0
230
1.0
 70
    24
 71
     2
 72
     6
 73
     3
 74
     0
 42
0.0000000001
 43
0.0000000001
 40
0.0
 40
0.0
 40
0.0
 40
70.0
 40
70.0
 40
70.0
 10
-461.7220926874319
 20
230.0
 30
0.0
 10
-461.7220926874319
 20
265.0
 30
0.0
 10
-461.7220926874319
 20
300.0
 30
0.0
  0
SPLINE
  5
164
330
1F
100
AcDbEntity
  8
Linee visibili 2D
100
AcDbSpline
210
0.0
220
0.0
230
1.0
 70
    24
 71
     2
 72
     6
 73
     3
 74
     0
 42
0.0000000001
 43
0.0000000001
 40
0.0
 40
0.0
 40
0.0
 40
26.6614946458334
 40
26.6614946458334
 40
26.6614946458334
 10
-461.7220926874319
 20
300.0
 30
0.0
 10
-475.0528400103485
 20
300.0000000000307
 30
0.0
 10
-488.3835873332653
 20
300.0000000000614
 30
0.0
  0
SPLINE
  5
165
330
1F
100
AcDbEntity
  8
Linee visibili 2D
100
AcDbSpline
210
0.0
220
0.0
230
1.0
 70
    24
 71
     2
 72
     6
 73
     3
 74
     0
 42
0.0000000001
 43
0.0000000001
 40
0.0
 40
0.0
 40
0.0
 40
25.0
 40
25.0
 40
25.0
 10
-461.7220926874319
 20
0.0
 30
0.0
 10
-461.7220926874319
 20
12.5
 30
0.0
 10
-461.7220926874319
 20
25.0
 30
0.0
  0
SPLINE
  5
166
330
1F
100
AcDbEntity
  8
Linee visibili 2D
100
AcDbSpline
210
0.0
220
0.0
230
1.0
 70
    24
 71
     2
 72
     6
 73
     3
 74
     0
 42
0.0000000001
 43
0.0000000001
 40
-460.0
 40
-460.0
 40
-460.0
 40
0.0
 40
0.0
 40
0.0
 10
-461.7220926874319
 20
25.0
 30
0.0
 10
-691.7220926874319
 20
25.0
 30
0.0
 10
-921.722092687432
 20
25.0
 30
0.0
  0
SPLINE
  5
167
330
1F
100
AcDbEntity
  8
Linee visibili 2D
100
AcDbSpline
210
0.0
220
0.0
230
1.0
 70
    24
 71
     2
 72
     6
 73
     3
 74
     0
 42
0.0000000001
 43
0.0000000001
 40
-79.9999999999999
 40
-79.9999999999999
 40
-79.9999999999999
 40
0.0
 40
0.0
 40
0.0
 10
-921.722092687432
 20
25.0
 30
0.0
 10
-961.722092687432
 20
25.0
 30
0.0
 10
-1001.722092687432
 20
25.0
 30
0.0
  0
SPLINE
  5
168
330
1F
100
AcDbEntity
  8
Linee visibili 2D
100
AcDbSpline
210
0.0
220
0.0
230
1.0
 70
    24
 71
     2
 72
     6
 73
     3
 74
     0
 42
0.0000000001
 43
0.0000000001
 40
0.0
 40
0.0
 40
0.0
 40
25.0
 40
25.0
 40
25.0
 10
-1001.722092687432
 20
25.0
 30
0.0
 10
-1001.722092687432
 20
12.5
 30
0.0
 10
-1001.722092687432
 20
0.0
 30
0.0
  0
SPLINE
  5
169
330
1F
100
AcDbEntity
  8
Linee visibili 2D
100
AcDbSpline
210
0.0
220
0.0
230
1.0
 70
    24
 71
     2
 72
     6
 73
     3
 74
     0
 42
0.0000000001
 43
0.0000000001
 40
0.0
 40
0.0
 40
0.0
 40
79.99999999999992
 40
79.99999999999992
 40
79.99999999999992
 10
-1001.722092687432
 20
0.0
 30
0.0
 10
-961.7220926874317
 20
0.0
 30
0.0
 10
-921.722092687432
 20
0.0
 30
0.0
  0
SPLINE
  5
16A
330
1F
100
AcDbEntity
  8
Linee visibili 2D
100
AcDbSpline
210
0.0
220
0.0
230
1.0
 70
    24
 71
     2
 72
     6
 73
     3
 74
     0
 42
0.0000000001
 43
0.0000000001
 40
0.0
 40
0.0
 40
0.0
 40
460.0
 40
460.0
 40
460.0
 10
-921.722092687432
 20
0.0
 30
0.0
 10
-691.7220926874319
 20
0.0
 30
0.0
 10
-461.7220926874319
 20
0.0
 30
0.0
  0
SPLINE
  5
16C
330
1F
100
AcDbEntity
  8
Predefinito
100
AcDbSpline
210
0.0
220
0.0
230
1.0
 70
    12
 71
     2
 72
     6
 73
     3
 74
     0
 42
0.0000000001
 43
0.0000000001
 40
-4.955969997130473
 40
-4.955969997130473
 40
-4.955969997130473
 40
0.0
 40
0.0
 40
0.0
 10
-691.6546452010159
 20
320.2384561228901
 30
0.0
 41
1.0
 10
-690.1742380072462
 20
322.499999614911
 30
0.0
 41
0.8796850087504163
 10
-687.4711539086238
 20
322.4999999567335
 30
0.0
 41
1.0
  0
SPLINE
  5
16D
330
1F
100
AcDbEntity
  8
Predefinito
100
AcDbSpline
210
0.0
220
0.0
230
1.0
 70
    24
 71
     2
 72
     6
 73
     3
 74
     0
 42
0.0000000001
 43
0.0000000001
 40
-65.74897257686967
 40
-65.74897257686967
 40
-65.74897257686967
 40
0.0
 40
0.0
 40
0.0
 10
-687.4711539086238
 20
322.4999999567335
 30
0.0
 10
-654.596623298014
 20
322.499999978356
 30
0.0
 10
-621.7220926874041
 20
322.4999999999783
 30
0.0
  0
SPLINE
  5
16E
330
1F
100
AcDbEntity
  8
Predefinito
100
AcDbSpline
210
0.0
220
0.0
230
1.0
 70
    24
 71
     2
 72
     6
 73
     3
 74
     0
 42
0.0000000001
 43
0.0000000001
 40
0.0
 40
0.0
 40
0.0
 40
37.5000000000432
 40
37.5000000000432
 40
37.5000000000432
 10
-621.7220926874041
 20
322.4999999999783
 30
0.0
 10
-621.722092687418
 20
341.2499999999892
 30
0.0
 10
-621.7220926874318
 20
360.0
 30
0.0
  0
SPLINE
  5
16F
330
1F
100
AcDbEntity
  8
Predefinito
100
AcDbSpline
210
0.0
220
0.0
230
1.0
 70
    24
 71
     2
 72
     6
 73
     3
 74
     0
 42
0.0000000001
 43
0.0000000001
 40
0.0
 40
0.0
 40
0.0
 40
5.593893495999963
 40
5.593893495999963
 40
5.593893495999963
 10
-621.7220926874318
 20
360.0
 30
0.0
 10
-621.7220926874318
 20
362.796946748
 30
0.0
 10
-621.7220926874318
 20
365.5938934959999
 30
0.0
  0
SPLINE
  5
170
330
1F
100
AcDbEntity
  8
Predefinito
100
AcDbSpline
210
0.0
220
0.0
230
1.0
 70
    24
 71
     2
 72
     6
 73
     3
 74
     0
 42
0.0000000001
 43
0.0000000001
 40
-9.406106504000037
 40
-9.406106504000037
 40
-9.406106504000037
 40
0.0
 40
0.0
 40
0.0
 10
-621.7220926874318
 20
365.5938934959999
 30
0.0
 10
-621.7220926874318
 20
370.296946748
 30
0.0
 10
-621.7220926874318
 20
375.0
 30
0.0
  0
SPLINE
  5
171
330
1F
100
AcDbEntity
  8
Predefinito
100
AcDbSpline
210
0.0
220
0.0
230
1.0
 70
    24
 71
     2
 72
     6
 73
     3
 74
     0
 42
0.0000000001
 43
0.0000000001
 40
0.0
 40
0.0
 40
0.0
 40
90.0
 40
90.0
 40
90.0
 10
-621.7220926874318
 20
375.0
 30
0.0
 10
-666.7220926874318
 20
375.0
 30
0.0
 10
-711.722092687432
 20
375.0
 30
0.0
  0
SPLINE
  5
172
330
1F
100
AcDbEntity
  8
Predefinito
100
AcDbSpline
210
0.0
220
0.0
230
1.0
 70
    24
 71
     2
 72
     6
 73
     3
 74
     0
 42
0.0000000001
 43
0.0000000001
 40
0.0
 40
0.0
 40
0.0
 40
18.09705428423001
 40
18.09705428423001
 40
18.09705428423001
 10
-711.722092687432
 20
375.0
 30
0.0
 10
-720.7706198295468
 20
375.0
 30
0.0
 10
-729.8191469716617
 20
375.0
 30
0.0
  0
SPLINE
  5
173
330
1F
100
AcDbEntity
  8
Predefinito
100
AcDbSpline
210
0.0
220
0.0
230
1.0
 70
    12
 71
     3
 72
    10
 73
     6
 74
     0
 42
0.0000000001
 43
0.0000000001
 40
-0.0184341832064124
 40
-0.0184341832064124
 40
-0.0184341832064124
 40
-0.0184341832064124
 40
-0.0092170916032062
 40
-0.0092170916032062
 40
0.0000000000000001
 40
0.0000000000000001
 40
0.0000000000000001
 40
0.0000000000000001
 10
-729.8191469716617
 20
375.0
 30
0.0
 41
1.0
 10
-732.8921445766235
 20
375.0000000049998
 30
0.0
 41
1.0
 10
-735.9641715145851
 20
374.9520648910002
 30
0.0
 41
1.0
 10
-742.1073075185086
 20
374.8113318290001
 30
0.0
 41
1.0
 10
-745.1784211344702
 20
374.7185699010001
 30
0.0
 41
1.0
 10
-748.2495139504318
 20
374.6249219990001
 30
0.0
 41
1.0
  0
SPLINE
  5
174
330
1F
100
AcDbEntity
  8
Predefinito
100
AcDbSpline
210
0.0
220
0.0
230
1.0
 70
     8
 71
     3
 72
    11
 73
     7
 74
     0
 42
0.0000000001
 43
0.0000000001
 40
0.0
 40
0.0
 40
0.0
 40
0.0
 40
2.839356197466934
 40
5.994048873484511
 40
12.30318736381811
 40
25.23725799749731
 40
25.23725799749731
 40
25.23725799749731
 40
25.23725799749731
 10
-748.2495139504318
 20
374.6249219990001
 30
0.0
 10
-749.195526176742
 20
374.5960663305441
 30
0.0
 10
-751.1927334318193
 20
374.5390946400338
 30
0.0
 10
-755.2925666239205
 20
374.4383226625821
 30
0.0
 10
-762.7573010074809
 20
374.2995829271773
 30
0.0
 10
-769.171716869103
 20
374.2532891521962
 30
0.0
 10
-773.4830712364319
 20
374.2532041250001
 30
0.0
  0
SPLINE
  5
175
330
1F
100
AcDbEntity
  8
Predefinito
100
AcDbSpline
210
0.0
220
0.0
230
1.0
 70
    24
 71
     2
 72
     6
 73
     3
 74
     0
 42
0.0000000001
 43
0.0000000001
 40
-235.3533067970007
 40
-235.3533067970007
 40
-235.3533067970007
 40
0.0
 40
0.0
 40
0.0
 10
-773.4830712364319
 20
374.2532041250001
 30
0.0
 10
-891.159724634932
 20
374.2531943635
 30
0.0
 10
-1008.836378033432
 20
374.2531846019999
 30
0.0
  0
POLYLINE
  5
176
330
1F
100
AcDbEntity
  8
Predefinito
100
AcDb2dPolyline
 66
     1
 10
0.0
 20
0.0
 30
0.0
  0
VERTEX
  5
177
330
176
100
AcDbEntity
  8
Predefinito
100
AcDbVertex
100
AcDb2dVertex
 10
-1008.836378033432
 20
374.2531846019999
 30
0.0
  0
VERTEX
  5
178
330
176
100
AcDbEntity
  8
Predefinito
100
AcDbVertex
100
AcDb2dVertex
 10
-1011.722092687433
 20
374.259286726764
 30
0.0
  0
SEQEND
  5
179
330
176
100
AcDbEntity
  8
Predefinito
  0
SPLINE
  5
17A
330
1F
100
AcDbEntity
  8
Predefinito
100
AcDbSpline
210
0.0
220
0.0
230
1.0
 70
     8
 71
     3
 72
    21
 73
    17
 74
     0
 42
0.0000000001
 43
0.0000000001
 40
0.0
 40
0.0
 40
0.0
 40
0.0
 40
13.24549464065689
 40
28.22928169068717
 40
45.54012161413965
 40
63.64119501303557
 40
76.25609313457393
 40
84.28703912186279
 40
86.85101694638561
 40
88.62908949741234
 40
89.22079191465545
 40
89.64879846212452
 40
89.81774001299145
 40
89.91342223008457
 40
89.97435741035571
 40
90.00341769989143
 40
90.00341769989143
 40
90.00341769989143
 40
90.00341769989143
 10
-1011.722092687433
 20
374.259286726764
 30
0.0
 10
-1016.137220179811
 20
374.2774806969164
 30
0.0
 10
-1025.546930522738
 20
374.3088229884556
 30
0.0
 10
-1040.726938046931
 20
374.3414762948159
 30
0.0
 10
-1057.525494482427
 20
374.3614735442895
 30
0.0
 10
-1073.534431016922
 20
374.3685285517843
 30
0.0
 10
-1086.450070534554
 20
374.3647042672924
 30
0.0
 10
-1094.186671500498
 20
374.3519160409166
 30
0.0
 10
-1098.310963456009
 20
374.3325863794961
 30
0.0
 10
-1099.955487497511
 20
374.3175774716888
 30
0.0
 10
-1100.887962938153
 20
374.3024106812161
 30
0.0
 10
-1101.284058154926
 20
374.2921820777722
 30
0.0
 10
-1101.514690921914
 20
374.2827801751116
 30
0.0
 10
-1101.623250208682
 20
374.2762731255098
 30
0.0
 10
-1101.68427884727
 20
374.269745723341
 30
0.0
 10
-1101.714877913199
 20
374.2655735269273
 30
0.0
 10
-1101.722092687432
 20
374.2592867269999
 30
0.0
  0
SPLINE
  5
17B
330
1F
100
AcDbEntity
  8
Predefinito
100
AcDbSpline
210
0.0
220
0.0
230
1.0
 70
    12
 71
     2
 72
     6
 73
     3
 74
     0
 42
0.0000000001
 43
0.0000000001
 40
0.0
 40
0.0
 40
0.0
 40
6.739839883256813
 40
6.739839883256813
 40
6.739839883256813
 10
-1101.722092687432
 20
374.2592867269999
 30
0.0
 41
1.0
 10
-1101.722079407592
 20
370.2654786294858
 30
0.0
 41
0.7813383189344557
 10
-1097.827001162488
 20
369.3829433132155
 30
0.0
 41
1.0
  0
SPLINE
  5
17C
330
1F
100
AcDbEntity
  8
Predefinito
100
AcDbSpline
210
0.0
220
0.0
230
1.0
 70
     8
 71
     3
 72
    18
 73
    14
 74
     0
 42
0.0000000001
 43
0.0000000001
 40
0.0
 40
0.0
 40
0.0
 40
0.0
 40
0.0362978668475441
 40
0.1017635014478739
 40
0.3697947857530011
 40
0.7919031448847298
 40
1.368816967824553
 40
3.087468218614695
 40
5.551870449021878
 40
13.24228440698274
 40
25.2990346443564
 40
58.71811088397108
 40
86.08517761728442
 40
86.08517761728442
 40
86.08517761728442
 40
86.08517761728442
 10
-1097.827001162488
 20
369.3829433132155
 30
0.0
 10
-1097.815634318755
 20
369.3871313048307
 30
0.0
 10
-1097.781815912927
 20
369.3910993530851
 30
0.0
 10
-1097.658837853874
 20
369.3992546445561
 30
0.0
 10
-1097.407070365942
 20
369.4073363710368
 30
0.0
 10
-1096.984809207242
 20
369.4159927782371
 30
0.0
 10
-1096.078987493496
 20
369.4276500933582
 30
0.0
 10
-1094.492371601585
 20
369.4394767337026
 30
0.0
 10
-1090.534574582735
 20
369.4544738019458
 30
0.0
 10
-1083.130722824046
 20
369.4648245114806
 30
0.0
 10
-1065.408643226025
 20
369.468481493323
 30
0.0
 10
-1041.127677766342
 20
369.4535182800144
 30
0.0
 10
-1020.865665130964
 20
369.4128910587052
 30
0.0
 10
-1011.743357138432
 20
369.3829433129999
 30
0.0
  0
POLYLINE
  5
17D
330
1F
100
AcDbEntity
  8
Predefinito
100
AcDb2dPolyline
 66
     1
 10
0.0
 20
0.0
 30
0.0
  0
VERTEX
  5
17E
330
17D
100
AcDbEntity
  8
Predefinito
100
AcDbVertex
100
AcDb2dVertex
 10
-1011.743357138432
 20
369.3829433129999
 30
0.0
  0
VERTEX
  5
17F
330
17D
100
AcDbEntity
  8
Predefinito
100
AcDbVertex
100
AcDb2dVertex
 10
-1008.836415673432
 20
369.378350320846
 30
0.0
  0
SEQEND
  5
180
330
17D
100
AcDbEntity
  8
Predefinito
  0
SPLINE
  5
181
330
1F
100
AcDbEntity
  8
Predefinito
100
AcDbSpline
210
0.0
220
0.0
230
1.0
 70
    24
 71
     2
 72
     6
 73
     3
 74
     0
 42
0.0000000001
 43
0.0000000001
 40
-235.3533477736718
 40
-235.3533477736718
 40
-235.3533477736718
 40
0.0
 40
0.0
 40
0.0
 10
-1008.836415673432
 20
369.378350320846
 30
0.0
 10
-891.159741786596
 20
369.3783479878607
 30
0.0
 10
-773.4830678997599
 20
369.3783456548754
 30
0.0
  0
SPLINE
  5
182
330
1F
100
AcDbEntity
  8
Predefinito
100
AcDbSpline
210
0.0
220
0.0
230
1.0
 70
     8
 71
     3
 72
    11
 73
     7
 74
     0
 42
0.0000000001
 43
0.0000000001
 40
0.0
 40
0.0
 40
0.0
 40
0.0
 40
3.489390105629026
 40
6.661581563189632
 40
13.32392609457445
 40
25.38685083974617
 40
25.38685083974617
 40
25.38685083974617
 40
25.38685083974617
 10
-773.4830678997599
 20
369.3783456548754
 30
0.0
 10
-772.3199364526947
 20
369.3783264138653
 30
0.0
 10
-770.0994130526132
 20
369.3816229291347
 30
0.0
 10
-765.6581354036798
 20
369.4006699767717
 30
0.0
 10
-758.3592318795622
 20
369.4636514396962
 30
0.0
 10
-752.1183187122467
 20
369.5743712852088
 30
0.0
 10
-748.0986810107292
 20
369.6785045735603
 30
0.0
  0
SPLINE
  5
183
330
1F
100
AcDbEntity
  8
Predefinito
100
AcDbSpline
210
0.0
220
0.0
230
1.0
 70
    12
 71
     3
 72
    10
 73
     6
 74
     0
 42
0.0000000001
 43
0.0000000001
 40
-0.0000000000000001
 40
-0.0000000000000001
 40
-0.0000000000000001
 40
-0.0000000000000001
 40
0.0092170916032062
 40
0.0092170916032062
 40
0.0184341832064124
 40
0.0184341832064124
 40
0.0184341832064124
 40
0.0184341832064124
 10
-748.0986810107292
 20
369.6785045735603
 30
0.0
 41
1.0
 10
-745.0285079446547
 20
369.7587748361304
 30
0.0
 41
1.0
 10
-741.9687635895193
 20
369.8382844277019
 30
0.0
 41
1.0
 10
-735.8743997370963
 20
369.9589127638483
 30
0.0
 41
1.0
 10
-732.8397774768079
 20
370.0000000004231
 30
0.0
 41
1.0
 10
-729.8191469714319
 20
370.0
 30
0.0
 41
1.0
  0
SPLINE
  5
184
330
1F
100
AcDbEntity
  8
Predefinito
100
AcDbSpline
210
0.0
220
0.0
230
1.0
 70
    24
 71
     2
 72
     6
 73
     3
 74
     0
 42
0.0000000001
 43
0.0000000001
 40
0.0
 40
0.0
 40
0.0
 40
18.09705428400002
 40
18.09705428400002
 40
18.09705428400002
 10
-729.8191469714319
 20
370.0
 30
0.0
 10
-720.7706198294318
 20
370.0
 30
0.0
 10
-711.722092687432
 20
370.0
 30
0.0
  0
SPLINE
  5
185
330
1F
100
AcDbEntity
  8
Predefinito
100
AcDbSpline
210
0.0
220
0.0
230
1.0
 70
    24
 71
     2
 72
     6
 73
     3
 74
     0
 42
0.0000000001
 43
0.0000000001
 40
0.0
 40
0.0
 40
0.0
 40
85.00000000000007
 40
85.00000000000007
 40
85.00000000000007
 10
-711.722092687432
 20
370.0
 30
0.0
 10
-669.2220926874317
 20
370.0
 30
0.0
 10
-626.7220926874317
 20
370.0
 30
0.0
  0
SPLINE
  5
186
330
1F
100
AcDbEntity
  8
Predefinito
100
AcDbSpline
210
0.0
220
0.0
230
1.0
 70
    12
 71
     2
 72
     6
 73
     3
 74
     0
 42
0.0000000001
 43
0.0000000001
 40
-7.853981633974638
 40
-7.853981633974638
 40
-7.853981633974638
 40
0.0
 40
0.0
 40
0.0
 10
-626.7220926874317
 20
370.0
 30
0.0
 41
1.0
 10
-621.7220926874313
 20
369.9999999999996
 30
0.0
 41
0.7071067811864672
 10
-621.7220926874319
 20
375.0
 30
0.0
 41
1.0
  0
SPLINE
  5
187
330
1F
100
AcDbEntity
  8
Predefinito
100
AcDbSpline
210
0.0
220
0.0
230
1.0
 70
    24
 71
     2
 72
     6
 73
     3
 74
     0
 42
0.0000000001
 43
0.0000000001
 40
0.0
 40
0.0
 40
0.0
 40
10.0
 40
10.0
 40
10.0
 10
-621.7220926874319
 20
375.0
 30
0.0
 10
-621.7220926874318
 20
380.0
 30
0.0
 10
-621.7220926874317
 20
385.0
 30
0.0
  0
SPLINE
  5
188
330
1F
100
AcDbEntity
  8
Predefinito
100
AcDbSpline
210
0.0
220
0.0
230
1.0
 70
    12
 71
     2
 72
     6
 73
     3
 74
     0
 42
0.0000000001
 43
0.0000000001
 40
0.0
 40
0.0
 40
0.0
 40
7.742992987804906
 40
7.742992987804906
 40
7.742992987804906
 10
-621.7220926874317
 20
385.0
 30
0.0
 41
1.0
 10
-621.7220926874319
 20
389.8902252216688
 30
0.0
 41
0.714911150539106
 10
-616.8330722190835
 20
389.9987682026231
 30
0.0
 41
1.0
  0
SPLINE
  5
189
330
1F
100
AcDbEntity
  8
Linee visibili 2D - Tangent
100
AcDbSpline
210
0.0
220
0.0
230
1.0
 70
    24
 71
     2
 72
     6
 73
     3
 74
     0
 42
0.0000000001
 43
0.0000000001
 40
0.0
 40
0.0
 40
0.0
 40
89.99999999999994
 40
89.99999999999994
 40
89.99999999999994
 10
-621.7220926874318
 20
384.9999999999998
 30
0.0
 10
-666.7220926874318
 20
384.9999999999998
 30
0.0
 10
-711.7220926874317
 20
385.0
 30
0.0
  0
SPLINE
  5
18A
330
1F
100
AcDbEntity
  8
Linee visibili 2D - Tangent
100
AcDbSpline
210
0.0
220
0.0
230
1.0
 70
    24
 71
     2
 72
     6
 73
     3
 74
     0
 42
0.0000000001
 43
0.0000000001
 40
0.0
 40
0.0
 40
0.0
 40
299.9999999999998
 40
299.9999999999998
 40
299.9999999999998
 10
-711.7220926874317
 20
385.0
 30
0.0
 10
-861.7220926874317
 20
385.0
 30
0.0
 10
-1011.722092687432
 20
385.0
 30
0.0
  0
SPLINE
  5
18B
330
1F
100
AcDbEntity
  8
Linee visibili 2D - Tangent
100
AcDbSpline
210
0.0
220
0.0
230
1.0
 70
    24
 71
     2
 72
     6
 73
     3
 74
     0
 42
0.0000000001
 43
0.0000000001
 40
0.0
 40
0.0
 40
0.0
 40
90.00000000000033
 40
90.00000000000033
 40
90.00000000000033
 10
-1011.722092687432
 20
385.0
 30
0.0
 10
-1056.722092687432
 20
385.0
 30
0.0
 10
-1101.722092687432
 20
385.0
 30
0.0
  0
SPLINE
  5
18C
330
1F
100
AcDbEntity
  8
Linee visibili 2D
100
AcDbSpline
210
0.0
220
0.0
230
1.0
 70
    24
 71
     2
 72
     6
 73
     3
 74
     0
 42
0.0000000001
 43
0.0000000001
 40
0.0
 40
0.0
 40
0.0
 40
460.0000000000001
 40
460.0000000000001
 40
460.0000000000001
 10
-461.7220926874319
 20
30.0
 30
0.0
 10
-691.7220926874319
 20
30.0
 30
0.0
 10
-921.722092687432
 20
30.0
 30
0.0
  0
SPLINE
  5
18D
330
1F
100
AcDbEntity
  8
Linee visibili 2D
100
AcDbSpline
210
0.0
220
0.0
230
1.0
 70
    24
 71
     2
 72
     6
 73
     3
 74
     0
 42
0.0000000001
 43
0.0000000001
 40
0.0
 40
0.0
 40
0.0
 40
75.00000000000007
 40
75.00000000000007
 40
75.00000000000007
 10
-921.722092687432
 20
30.0
 30
0.0
 10
-959.222092687432
 20
30.0
 30
0.0
 10
-996.722092687432
 20
30.0
 30
0.0
  0
SPLINE
  5
18E
330
1F
100
AcDbEntity
  8
Linee visibili 2D
100
AcDbSpline
210
0.0
220
0.0
230
1.0
 70
    12
 71
     2
 72
     6
 73
     3
 74
     0
 42
0.0000000001
 43
0.0000000001
 40
0.0
 40
0.0
 40
0.0
 40
7.853981633974371
 40
7.853981633974371
 40
7.853981633974371
 10
-996.722092687432
 20
30.0
 30
0.0
 41
1.0
 10
-1001.722092687432
 20
29.99999999999976
 30
0.0
 41
0.7071067811865807
 10
-1001.722092687432
 20
25.0
 30
0.0
 41
1.0
  0
SPLINE
  5
18F
330
1F
100
AcDbEntity
  8
Linee visibili 2D - Tangent
100
AcDbSpline
210
0.0
220
0.0
230
1.0
 70
    24
 71
     2
 72
     6
 73
     3
 74
     0
 42
0.0000000001
 43
0.0000000001
 40
0.0
 40
0.0
 40
0.0
 40
0.0742531080574622
 40
0.0742531080574622
 40
0.0742531080574622
 10
120.0
 20
-670.5518348854319
 30
0.0
 10
120.0
 20
-670.5889614394607
 30
0.0
 10
120.0
 20
-670.6260879934894
 30
0.0
  0
SPLINE
  5
191
330
1F
100
AcDbEntity
  8
Linee visibili 2D - Tangent
100
AcDbSpline
210
0.0
220
0.0
230
1.0
 70
    12
 71
     2
 72
     6
 73
     3
 74
     0
 42
0.0000000001
 43
0.0000000001
 40
0.0
 40
0.0
 40
0.0
 40
102.3734916255083
 40
102.3734916255083
 40
102.3734916255083
 10
265.1729889349999
 20
-701.722092687432
 30
0.0
 41
1.0
 10
265.1729889350003
 20
-636.5491037524316
 30
0.0
 41
0.7071067811881197
 10
200.0000000000002
 20
-636.5491037521414
 30
0.0
 41
1.0
  0
SPLINE
  5
198
330
1F
100
AcDbEntity
  8
Linee visibili 2D
100
AcDbSpline
210
0.0
220
0.0
230
1.0
 70
    12
 71
     2
 72
     6
 73
     3
 74
     0
 42
0.0000000001
 43
0.0000000001
 40
0.0
 40
0.0
 40
0.0
 40
1.937624147174428
 40
1.937624147174428
 40
1.937624147174428
 10
12.54472783816891
 20
-432.7383693626836
 30
0.0
 41
1.0
 10
11.69342718737763
 20
-432.2519979997553
 30
0.0
 41
0.9822991418546843
 10
11.08085591966778
 20
-431.4864744255332
 30
0.0
 41
1.0
  0
SPLINE
  5
199
330
1F
100
AcDbEntity
  8
Linee visibili 2D
100
AcDbSpline
210
0.0
220
0.0
230
1.0
 70
    12
 71
     2
 72
     6
 73
     3
 74
     0
 42
0.0000000001
 43
0.0000000001
 40
0.0
 40
0.0
 40
0.0
 40
1.937618242554515
 40
1.937618242554515
 40
1.937618242554515
 10
10.51691910612908
 20
-430.5948184145266
 30
0.0
 41
1.0
 10
10.08778877723127
 20
-429.713279586835
 30
0.0
 41
0.9822995218441256
 10
10.01318151136388
 20
-428.7356818680426
 30
0.0
 41
1.0
  0
SPLINE
  5
19A
330
1F
100
AcDbEntity
  8
Linee visibili 2D - Tangent
100
AcDbSpline
210
0.0
220
0.0
230
1.0
 70
    24
 71
     2
 72
     6
 73
     3
 74
     0
 42
0.0000000001
 43
0.0000000001
 40
0.0
 40
0.0
 40
0.0
 40
4.999999999999773
 40
4.999999999999773
 40
4.999999999999773
 10
-59.99999999999977
 20
-651.7220926874317
 30
0.0
 10
-57.49999999999989
 20
-651.7220926874317
 30
0.0
 10
-55.0
 20
-651.7220926874317
 30
0.0
  0
SPLINE
  5
19C
330
1F
100
AcDbEntity
  8
Linee visibili 2D - Tangent
100
AcDbSpline
210
0.0
220
0.0
230
1.0
 70
    12
 71
     2
 72
     6
 73
     3
 74
     0
 42
0.0000000001
 43
0.0000000001
 40
0.0
 40
0.0
 40
0.0
 40
102.3734916256825
 40
102.3734916256825
 40
102.3734916256825
 10
-25.17298893515931
 20
-951.7220926874326
 30
0.0
 41
1.0
 10
-25.17298893499999
 20
-1016.895081622592
 30
0.0
 41
0.7071067811874087
 10
40.00000000015893
 20
-1016.895081622591
 30
0.0
 41
1.0
  0
SPLINE
  5
1A0
330
1F
100
AcDbEntity
  8
Linee visibili 2D
100
AcDbSpline
210
0.0
220
0.0
230
1.0
 70
     8
 71
     3
 72
    19
 73
    15
 74
     0
 42
0.0000000001
 43
0.0000000001
 40
0.0
 40
0.0
 40
0.0
 40
0.0
 40
1.537424835064741
 40
3.047651686744798
 40
6.083497485727588
 40
12.15233582399114
 40
18.23837690746126
 40
24.33626210266179
 40
30.42086233492206
 40
36.49135302710035
 40
42.54584346333529
 40
44.07040765428371
 40
45.59677650348826
 40
48.67034701077837
 40
48.67034701077837
 40
48.67034701077837
 40
48.67034701077837
 10
199.9920171872318
 20
-982.7456709171613
 30
0.0
 10
200.5044763920887
 20
-982.7446195688189
 30
0.0
 10
201.5203717368693
 20
-982.7191831433687
 30
0.0
 10
203.5431509865443
 20
-982.5681370718733
 30
0.0
 10
207.0471011449958
 20
-982.0462589987053
 30
0.0
 10
211.9149368717224
 20
-980.5656408641812
 30
0.0
 10
217.3039467461576
 20
-977.678222250115
 30
0.0
 10
222.0281694114899
 20
-973.7890803844681
 30
0.0
 10
225.8971054960102
 20
-969.0551324313913
 30
0.0
 10
228.7606969568262
 20
-963.6700058224937
 30
0.0
 10
230.0793556921421
 20
-959.2925502768936
 30
0.0
 10
230.592449514819
 20
-956.3001649595342
 30
0.0
 10
230.8384022915732
 20
-954.2729278138294
 30
0.0
 10
230.9145179586374
 20
-952.7397849738948
 30
0.0
 10
230.9160075906982
 20
-951.7152465090763
 30
0.0
  0
SPLINE
  5
1A1
330
1F
100
AcDbEntity
  8
Linee visibili 2D
100
AcDbSpline
210
0.0
220
0.0
230
1.0
 70
     8
 71
     3
 72
    19
 73
    15
 74
     0
 42
0.0000000001
 43
0.0000000001
 40
0.0
 40
0.0
 40
0.0
 40
0.0
 40
3.07357050733308
 40
4.59989311234583
 40
6.124509861277747
 40
12.17898503575704
 40
18.2495030494938
 40
24.33400663122185
 40
30.43196993172132
 40
36.51802083679241
 40
42.58684236309506
 40
45.62274817709163
 40
47.13293565557641
 40
48.67034674562577
 40
48.67034674562577
 40
48.67034674562577
 40
48.67034674562577
 10
9.083992409302027
 20
-951.7152465090923
 30
0.0
 10
9.085483161699812
 20
-952.7397847937157
 30
0.0
 10
9.161594023584484
 20
-954.27291274321
 30
0.0
 10
9.40755404419724
 20
-956.3001513968703
 30
0.0
 10
9.920639034459329
 20
-959.2925355626793
 30
0.0
 10
11.23930459525309
 20
-963.6700108799155
 30
0.0
 10
14.10288551825101
 20
-969.0551103917947
 30
0.0
 10
17.97181126830651
 20
-973.7890706761971
 30
0.0
 10
22.69603425485593
 20
-977.6782115961824
 30
0.0
 10
28.08506366113716
 20
-980.5656391131652
 30
0.0
 10
32.9529164738608
 20
-982.0462679239549
 30
0.0
 10
36.45686791302705
 20
-982.5681423331467
 30
0.0
 10
38.47965159914976
 20
-982.719179582377
 30
0.0
 10
39.49552753153739
 20
-982.7446225075762
 30
0.0
 10
40.00798281267975
 20
-982.7456709171613
 30
0.0
  0
SPLINE
  5
1EC
330
1F
100
AcDbEntity
  8
Linee visibili 2D
100
AcDbSpline
210
0.0
220
0.0
230
1.0
 70
     8
 71
     3
 72
    11
 73
     7
 74
     0
 42
0.0000000001
 43
0.0000000001
 40
0.0
 40
0.0
 40
0.0
 40
0.0
 40
1.062187497559889
 40
2.138757172463873
 40
4.515217180084435
 40
10.24560688149808
 40
10.24560688149808
 40
10.24560688149808
 40
10.24560688149808
 10
12.81423181103514
 20
-449.6811755633099
 30
0.0
 10
12.80903835013078
 20
-449.327151228571
 30
0.0
 10
12.79949698130167
 20
-448.6142952960315
 30
0.0
 10
12.78293804747796
 20
-447.1093132108157
 30
0.0
 10
12.75989184750074
 20
-444.0482522739767
 30
0.0
 10
12.7544627034797
 20
-441.3459616591998
 30
0.0
 10
12.75287054328896
 20
-439.435834425158
 30
0.0
  0
SPLINE
  5
1ED
330
1F
100
AcDbEntity
  8
Linee visibili 2D
100
AcDbSpline
210
0.0
220
0.0
230
1.0
 70
    12
 71
     2
 72
     6
 73
     3
 74
     0
 42
0.0000000001
 43
0.0000000001
 40
-0.1461562126850749
 40
-0.1461562126850749
 40
-0.1461562126850749
 40
0.0
 40
0.0
 40
0.0
 10
12.75287054328896
 20
-439.435834425158
 30
0.0
 41
1.0
 10
12.75268097036485
 20
-439.3627563131162
 30
0.0
 41
0.9999999998997719
 10
12.75282946283346
 20
-439.2896781731728
 30
0.0
 41
1.0
  0
SPLINE
  5
1EE
330
1F
100
AcDbEntity
  8
Linee visibili 2D
100
AcDbSpline
210
0.0
220
0.0
230
1.0
 70
    12
 71
     2
 72
     6
 73
     3
 74
     0
 42
0.0000000001
 43
0.0000000001
 40
0.0
 40
0.0
 40
0.0
 40
0.0301980193182592
 40
0.0301980193182592
 40
0.0301980193182592
 10
12.75282946283348
 20
-439.2896781731728
 30
0.0
 41
0.9999999999999998
 10
12.75296521122621
 20
-439.2745791084978
 30
0.0
 41
0.9999999999576242
 10
12.7528220188658
 20
-439.2594801162558
 30
0.0
 41
1.0
  0
SPLINE
  5
1EF
330
1F
100
AcDbEntity
  8
Linee visibili 2D
100
AcDbSpline
210
0.0
220
0.0
230
1.0
 70
    12
 71
     2
 72
     6
 73
     3
 74
     0
 42
0.0000000001
 43
0.0000000001
 40
-0.1481385482263246
 40
-0.1481385482263246
 40
-0.1481385482263246
 40
0.0
 40
0.0
 40
0.0
 10
12.7528220188658
 20
-439.2594801162558
 30
0.0
 41
1.0
 10
12.75269169830415
 20
-439.1854108337995
 30
0.0
 41
0.9999999999660019
 10
12.75279039904513
 20
-439.1113415605978
 30
0.0
 41
1.0
  0
SPLINE
  5
1F0
330
1F
100
AcDbEntity
  8
Linee visibili 2D
100
AcDbSpline
210
0.0
220
0.0
230
1.0
 70
    12
 71
     2
 72
     6
 73
     3
 74
     0
 42
0.0000000001
 43
0.0000000001
 40
0.0
 40
0.0
 40
0.0
 40
0.02628377955647
 40
0.02628377955647
 40
0.02628377955647
 10
12.75279039904513
 20
-439.1113415605978
 30
0.0
 41
1.0
 10
12.75287726991079
 20
-439.0981996515058
 30
0.0
 41
0.9999999999665256
 10
12.75278560697348
 20
-439.0850577773231
 30
0.0
 41
1.0
  0
SPLINE
  5
1F1
330
1F
100
AcDbEntity
  8
Linee visibili 2D
100
AcDbSpline
210
0.0
220
0.0
230
1.0
 70
    12
 71
     2
 72
     6
 73
     3
 74
     0
 42
0.0000000001
 43
0.0000000001
 40
-0.1502684589182613
 40
-0.1502684589182613
 40
-0.1502684589182613
 40
0.0
 40
0.0
 40
0.0
 10
12.75278560697348
 20
-439.0850577773231
 30
0.0
 41
1.0
 10
12.75270578536902
 20
-439.0099235411276
 30
0.0
 41
0.9999999999982586
 10
12.75276264474928
 20
-438.9347892958751
 30
0.0
 41
1.0
  0
SPLINE
  5
1F2
330
1F
100
AcDbEntity
  8
Linee visibili 2D
100
AcDbSpline
210
0.0
220
0.0
230
1.0
 70
    12
 71
     2
 72
     6
 73
     3
 74
     0
 42
0.0000000001
 43
0.0000000001
 40
0.0
 40
0.0
 40
0.0
 40
0.0222159114808959
 40
0.0222159114808959
 40
0.0222159114808959
 10
12.75276264474928
 20
-438.9347892958751
 30
0.0
 41
1.0
 10
12.7528093196336
 20
-438.9236813241317
 30
0.0
 41
0.9999999999750366
 10
12.75275986321481
 20
-438.9125733656825
 30
0.0
 41
1.0
  0
SPLINE
  5
1F3
330
1F
100
AcDbEntity
  8
Linee visibili 2D
100
AcDbSpline
210
0.0
220
0.0
230
1.0
 70
    12
 71
     2
 72
     6
 73
     3
 74
     0
 42
0.0000000001
 43
0.0000000001
 40
-0.152526988036762
 40
-0.152526988036762
 40
-0.152526988036762
 40
0.0
 40
0.0
 40
0.0
 10
12.75275986321481
 20
-438.9125733656825
 30
0.0
 41
1.0
 10
12.75272050361691
 20
-438.8363098680549
 30
0.0
 41
0.9999999999873082
 10
12.75274471103489
 20
-438.7600463719676
 30
0.0
 41
1.0
  0
SPLINE
  5
1F4
330
1F
100
AcDbEntity
  8
Linee visibili 2D
100
AcDbSpline
210
0.0
220
0.0
230
1.0
 70
    12
 71
     2
 72
     6
 73
     3
 74
     0
 42
0.0000000001
 43
0.0000000001
 40
0.0
 40
0.0
 40
0.0
 40
0.0180135296266664
 40
0.0180135296266664
 40
0.0180135296266664
 10
12.75274471103489
 20
-438.7600463719676
 30
0.0
 41
1.0
 10
12.7527611613427
 20
-438.7510396049458
 30
0.0
 41
0.9999999999828503
 10
12.75274335365634
 20
-438.7420328455895
 30
0.0
 41
1.0
  0
SPLINE
  5
1F5
330
1F
100
AcDbEntity
  8
Linee visibili 2D
100
AcDbSpline
210
0.0
220
0.0
230
1.0
 70
    12
 71
     2
 72
     6
 73
     3
 74
     0
 42
0.0000000001
 43
0.0000000001
 40
-0.154894949922933
 40
-0.154894949922933
 40
-0.154894949922933
 40
0.0
 40
0.0
 40
0.0
 10
12.75274335365634
 20
-438.7420328455895
 30
0.0
 41
1.0
 10
12.75273313592213
 20
-438.6645853727926
 30
0.0
 41
0.9999999999215461
 10
12.75273510561578
 20
-438.5871378989472
 30
0.0
 41
1.0
  0
SPLINE
  5
1F6
330
1F
100
AcDbEntity
  8
Linee visibili 2D
100
AcDbSpline
210
0.0
220
0.0
230
1.0
 70
    12
 71
     2
 72
     6
 73
     3
 74
     0
 42
0.0000000001
 43
0.0000000001
 40
0.0
 40
0.0
 40
0.0
 40
0.0136957398232067
 40
0.0136957398232067
 40
0.0136957398232067
 10
12.75273510561578
 20
-438.5871378989472
 30
0.0
 41
1.0
 10
12.75273259266467
 20
-438.5802900366185
 30
0.0
 41
0.9999999999896296
 10
12.752734653978
 20
-438.5734421760698
 30
0.0
 41
1.0
  0
SPLINE
  5
1F7
330
1F
100
AcDbEntity
  8
Linee visibili 2D
100
AcDbSpline
210
0.0
220
0.0
230
1.0
 70
    12
 71
     2
 72
     6
 73
     3
 74
     0
 42
0.0000000001
 43
0.0000000001
 40
-0.1573532327396754
 40
-0.1573532327396754
 40
-0.1573532327396754
 40
0.0
 40
0.0
 40
0.0
 10
12.752734653978
 20
-438.5734421760698
 30
0.0
 41
1.0
 10
12.75274097515171
 20
-438.4947655693033
 30
0.0
 41
0.9999999997865895
 10
12.75273233280154
 20
-438.4160889605441
 30
0.0
 41
1.0
  0
SPLINE
  5
1F8
330
1F
100
AcDbEntity
  8
Linee visibili 2D
100
AcDbSpline
210
0.0
220
0.0
230
1.0
 70
    24
 71
     2
 72
     6
 73
     3
 74
     0
 42
0.0000000001
 43
0.0000000001
 40
0.0
 40
0.0
 40
0.0
 40
0.0092816793572034
 40
0.0092816793572034
 40
0.0092816793572034
 10
12.75273233280154
 20
-438.4160889605441
 30
0.0
 10
12.75273234074371
 20
-438.4114481104225
 30
0.0
 10
12.75273234868587
 20
-438.4068072603009
 30
0.0
  0
SPLINE
  5
1F9
330
1F
100
AcDbEntity
  8
Linee visibili 2D
100
AcDbSpline
210
0.0
220
0.0
230
1.0
 70
    12
 71
     2
 72
     6
 73
     3
 74
     0
 42
0.0000000001
 43
0.0000000001
 40
-0.1596348382183633
 40
-0.1596348382183633
 40
-0.1596348382183633
 40
0.0
 40
0.0
 40
0.0
 10
12.75273234868587
 20
-438.4068072603009
 30
0.0
 41
1.0
 10
12.75274113130015
 20
-438.3269898220828
 30
0.0
 41
0.9999999997772535
 10
12.75273552891804
 20
-438.2471724018495
 30
0.0
 41
1.0
  0
SPLINE
  5
1FA
330
1F
100
AcDbEntity
  8
Linee visibili 2D
100
AcDbSpline
210
0.0
220
0.0
230
1.0
 70
    24
 71
     2
 72
     6
 73
     3
 74
     0
 42
0.0000000001
 43
0.0000000001
 40
0.0
 40
0.0
 40
0.0
 40
0.0050730582053116
 40
0.0050730582053116
 40
0.0050730582053116
 10
12.75273552891804
 20
-438.2471724018495
 30
0.0
 10
12.75273562867744
 20
-438.2446358690619
 30
0.0
 10
12.75273572843685
 20
-438.2420993362743
 30
0.0
  0
SPLINE
  5
1FB
330
1F
100
AcDbEntity
  8
Linee visibili 2D
100
AcDbSpline
210
0.0
220
0.0
230
1.0
 70
    12
 71
     2
 72
     6
 73
     3
 74
     0
 42
0.0000000001
 43
0.0000000001
 40
-0.16135711959077
 40
-0.16135711959077
 40
-0.16135711959077
 40
0.0
 40
0.0
 40
0.0
 10
12.75273572843685
 20
-438.2420993362743
 30
0.0
 41
1.0
 10
12.75273377204296
 20
-438.1614207727471
 30
0.0
 41
0.9999999998999628
 10
12.75274574806258
 20
-438.0807422142605
 30
0.0
 41
1.0
  0
SPLINE
  5
1FC
330
1F
100
AcDbEntity
  8
Linee visibili 2D
100
AcDbSpline
210
0.0
220
0.0
230
1.0
 70
     8
 71
     3
 72
    13
 73
     9
 74
     0
 42
0.0000000001
 43
0.0000000001
 40
0.0
 40
0.0
 40
0.0
 40
0.0
 40
1.28955477260562
 40
2.305183109985482
 40
3.721563054678813
 40
4.588181825981454
 40
4.864700372290807
 40
5.061134735435735
 40
5.061134735435735
 40
5.061134735435735
 40
5.061134735435735
 10
12.75274574806258
 20
-438.0807422142605
 30
0.0
 10
12.75288441177827
 20
-437.6508893164739
 30
0.0
 10
12.75336657102844
 20
-436.8824994116321
 30
0.0
 10
12.75613334748937
 20
-435.6419731094643
 30
0.0
 10
12.76185419189733
 20
-434.5424545637228
 30
0.0
 10
12.77536500526116
 20
-433.6893492001843
 30
0.0
 10
12.79363704864932
 20
-433.2431624301744
 30
0.0
 10
12.80624229515024
 20
-433.0859590894529
 30
0.0
 10
12.81438041434694
 20
-433.0209829264805
 30
0.0
  0
SPLINE
  5
1FD
330
1F
100
AcDbEntity
  8
Linee visibili 2D - Tangent
100
AcDbSpline
210
0.0
220
0.0
230
1.0
 70
    24
 71
     2
 72
     6
 73
     3
 74
     0
 42
0.0000000001
 43
0.0000000001
 40
0.0
 40
0.0
 40
0.0
 40
103.4087242346015
 40
103.4087242346015
 40
103.4087242346015
 10
227.1428037451349
 20
-555.4762189842818
 30
0.0
 10
227.1427947298174
 20
-503.7718568669815
 30
0.0
 10
227.1427857145
 20
-452.0674947496813
 30
0.0
  0
SPLINE
  5
1FE
330
1F
100
AcDbEntity
  8
Linee visibili 2D - Tangent
100
AcDbSpline
210
0.0
220
0.0
230
1.0
 70
    12
 71
     2
 72
     6
 73
     3
 74
     0
 42
0.0000000001
 43
0.0000000001
 40
-2.857214286225376
 40
-2.857214286225376
 40
-2.857214286225376
 40
0.0
 40
0.0
 40
0.0
 10
227.1427857145
 20
-452.0674947496813
 30
0.0
 41
1.0
 10
228.5713928578307
 20
-452.0674990107565
 30
0.0
 41
0.9999999997643815
 10
230.0
 20
-452.0674412474359
 30
0.0
 41
1.0
  0
SPLINE
  5
1FF
330
1F
100
AcDbEntity
  8
Linee visibili 2D
100
AcDbSpline
210
0.0
220
0.0
230
1.0
 70
    12
 71
     2
 72
     6
 73
     3
 74
     0
 42
0.0000000001
 43
0.0000000001
 40
0.0
 40
0.0
 40
0.0
 40
2.857185598563671
 40
2.857185598563671
 40
2.857185598563671
 10
10.0
 20
-452.0674412399417
 30
0.0
 41
1.0
 10
11.42859279582258
 20
-452.0675521125212
 30
0.0
 41
0.9999999991145816
 10
12.85718559591714
 20
-452.0675427509866
 30
0.0
 41
1.0
  0
SPLINE
  5
200
330
1F
100
AcDbEntity
  8
Linee visibili 2D
100
AcDbSpline
210
0.0
220
0.0
230
1.0
 70
     8
 71
     3
 72
    20
 73
    16
 74
     0
 42
0.0000000001
 43
0.0000000001
 40
0.0
 40
0.0
 40
0.0
 40
0.0
 40
3.7857473453531
 40
7.160025654555113
 40
10.19779502530954
 40
11.72465151862459
 40
12.99498591548862
 40
14.16458359175194
 40
15.23262758040918
 40
16.20038432570176
 40
17.07179995804806
 40
17.85438943459481
 40
18.56064682576757
 40
19.27849547519521
 40
19.89202592887649
 40
19.89202592887649
 40
19.89202592887649
 40
19.89202592887649
 10
12.85718559591714
 20
-452.0675427509866
 30
0.0
 10
14.10706095934097
 20
-452.2412529367423
 30
0.0
 10
16.46333992483437
 20
-452.6265940531533
 30
0.0
 10
19.78308403291817
 20
-453.3643081729827
 30
0.0
 10
22.32441675715222
 20
-454.1089255440753
 30
0.0
 10
24.15069106556325
 20
-454.7803023320764
 30
0.0
 10
25.36612378176505
 20
-455.3020589308196
 30
0.0
 10
26.41263946225899
 20
-455.8250685739927
 30
0.0
 10
27.33365536497968
 20
-456.3681753552207
 30
0.0
 10
28.1252438695185
 20
-456.9289522589785
 30
0.0
 10
28.78401884360028
 20
-457.5053123750571
 30
0.0
 10
29.30683125253245
 20
-458.0958786811098
 30
0.0
 10
29.70333588847757
 20
-458.7187079181297
 30
0.0
 10
29.94605857410966
 20
-459.3580824473963
 30
0.0
 10
30.00011220485044
 20
-459.80190828206
 30
0.0
 10
29.99999999998727
 20
-460.0063639344895
 30
0.0
  0
SPLINE
  5
201
330
1F
100
AcDbEntity
  8
Linee visibili 2D
100
AcDbSpline
210
0.0
220
0.0
230
1.0
 70
    24
 71
     2
 72
     6
 73
     3
 74
     0
 42
0.0000000001
 43
0.0000000001
 40
-49.99999999990997
 40
-49.99999999990997
 40
-49.99999999990997
 40
0.0
 40
0.0
 40
0.0
 10
29.99999999998727
 20
-460.0063639344895
 30
0.0
 10
54.99999999993589
 20
-460.0063639345183
 30
0.0
 10
79.9999999998845
 20
-460.0063639345473
 30
0.0
  0
SPLINE
  5
204
330
1F
100
AcDbEntity
  8
Linee visibili 2D
100
AcDbSpline
210
0.0
220
0.0
230
1.0
 70
    24
 71
     2
 72
     6
 73
     3
 74
     0
 42
0.0000000001
 43
0.0000000001
 40
-80.00000000000024
 40
-80.00000000000024
 40
-80.00000000000024
 40
0.0
 40
0.0
 40
0.0
 10
80.00000000005547
 20
-428.3835873333764
 30
0.0
 10
120.0000000000556
 20
-428.3835873333209
 30
0.0
 10
160.0000000000557
 20
-428.3835873332653
 30
0.0
  0
SPLINE
  5
206
330
1F
100
AcDbEntity
  8
Linee visibili 2D
100
AcDbSpline
210
0.0
220
0.0
230
1.0
 70
    24
 71
     2
 72
     6
 73
     3
 74
     0
 42
0.0000000001
 43
0.0000000001
 40
-80.00000000000024
 40
-80.00000000000024
 40
-80.00000000000024
 40
0.0
 40
0.0
 40
0.0
 10
160.0000000000603
 20
-432.9011268479667
 30
0.0
 10
120.0000000000601
 20
-432.9011268478144
 30
0.0
 10
80.00000000006004
 20
-432.9011268476622
 30
0.0
  0
SPLINE
  5
207
330
1F
100
AcDbEntity
  8
Linee visibili 2D
100
AcDbSpline
210
0.0
220
0.0
230
1.0
 70
    24
 71
     2
 72
     6
 73
     3
 74
     0
 42
0.0000000001
 43
0.0000000001
 40
-67.14285714302559
 40
-67.14285714302559
 40
-67.14285714302559
 40
0.0
 40
0.0
 40
0.0
 10
80.00000000006004
 20
-432.9011268476622
 30
0.0
 10
46.42856960298343
 20
-432.9011307411672
 30
0.0
 10
12.85713920590683
 20
-432.901134634672
 30
0.0
  0
SPLINE
  5
208
330
1F
100
AcDbEntity
  8
Linee visibili 2D
100
AcDbSpline
210
0.0
220
0.0
230
1.0
 70
    12
 71
     3
 72
     8
 73
     4
 74
     0
 42
0.0000000001
 43
0.0000000001
 40
1.000074389535803
 40
1.000074389535803
 40
1.000074389535803
 40
1.000074389535803
 40
1.421932881551554
 40
1.421932881551554
 40
1.421932881551554
 40
1.421932881551554
 10
12.85713920590683
 20
-432.901134634672
 30
0.0
 41
1.0
 10
12.76390755892999
 20
-432.8574286058608
 30
0.0
 41
1.0
 10
12.75368770299656
 20
-434.229691814071
 30
0.0
 41
1.0
 10
12.75276529106031
 20
-436.8396261613065
 30
0.0
 41
1.0
  0
SPLINE
  5
209
330
1F
100
AcDbEntity
  8
Linee visibili 2D
100
AcDbSpline
210
0.0
220
0.0
230
1.0
 70
    12
 71
     2
 72
     8
 73
     5
 74
     0
 42
0.0000000001
 43
0.0000000001
 40
0.0
 40
0.0
 40
0.0
 40
12.56637061435939
 40
12.56637061435939
 40
25.13274122871866
 40
25.13274122871866
 40
25.13274122871866
 10
200.0
 20
-592.7220926874318
 30
0.0
 41
1.0
 10
191.9999999999999
 20
-592.7220926874321
 30
0.0
 41
0.70710678118653
 10
191.9999999999998
 20
-584.7220926874317
 30
0.0
 41
1.0
 10
191.9999999999997
 20
-576.7220926874317
 30
0.0
 41
0.7071067811865275
 10
200.0
 20
-576.7220926874318
 30
0.0
 41
1.0
  0
SPLINE
  5
20A
330
1F
100
AcDbEntity
  8
Linee visibili 2D
100
AcDbSpline
210
0.0
220
0.0
230
1.0
 70
    12
 71
     2
 72
     8
 73
     5
 74
     0
 42
0.0000000001
 43
0.0000000001
 40
0.0
 40
0.0
 40
0.0
 40
12.56637061435903
 40
12.56637061435903
 40
25.13274122871819
 40
25.13274122871819
 40
25.13274122871819
 10
200.0
 20
-576.7220926874318
 30
0.0
 41
1.0
 10
208.0000000000001
 20
-576.7220926874321
 30
0.0
 41
0.7071067811865576
 10
207.9999999999998
 20
-584.722092687432
 30
0.0
 41
1.0
 10
208.0000000000001
 20
-592.7220926874319
 30
0.0
 41
0.7071067811865325
 10
200.0
 20
-592.7220926874318
 30
0.0
 41
1.0
  0
SPLINE
  5
20B
330
1F
100
AcDbEntity
  8
Linee visibili 2D - Tangent
100
AcDbSpline
210
0.0
220
0.0
230
1.0
 70
    24
 71
     2
 72
     6
 73
     3
 74
     0
 42
0.0000000001
 43
0.0000000001
 40
-28.484723648
 40
-28.484723648
 40
-28.484723648
 40
0.0
 40
0.0
 40
0.0
 10
105.7576338025001
 20
-745.0667660444318
 30
0.0
 10
119.9999956265001
 20
-745.0667660444318
 30
0.0
 10
134.2423574505001
 20
-745.0667660444318
 30
0.0
  0
SPLINE
  5
20C
330
1F
100
AcDbEntity
  8
Linee visibili 2D - Tangent
100
AcDbSpline
210
0.0
220
0.0
230
1.0
 70
    12
 71
     2
 72
     6
 73
     3
 74
     0
 42
0.0000000001
 43
0.0000000001
 40
0.0
 40
0.0
 40
0.0
 40
14.82591853322733
 40
14.82591853322733
 40
14.82591853322733
 10
134.2423574505001
 20
-745.0667660444318
 30
0.0
 41
1.0
 10
141.6553402345943
 20
-745.065034433354
 30
0.0
 41
0.9999952003752079
 10
149.0681699709685
 20
-745.0173683523455
 30
0.0
 41
1.0
  0
SPLINE
  5
20D
330
1F
100
AcDbEntity
  8
Linee visibili 2D - Tangent
100
AcDbSpline
210
0.0
220
0.0
230
1.0
 70
     8
 71
     3
 72
    12
 73
     8
 74
     0
 42
0.0000000001
 43
0.0000000001
 40
0.0
 40
0.0
 40
0.0
 40
0.0
 40
2.0329962129229
 40
4.09175036162199
 40
8.157605625523792
 40
12.24194240251531
 40
16.28524251761973
 40
16.28524251761973
 40
16.28524251761973
 40
16.28524251761973
 10
149.0681699709685
 20
-745.0173683523455
 30
0.0
 10
149.7456880337982
 20
-745.0031979417963
 30
0.0
 10
151.1111574149413
 20
-745.0635728355603
 30
0.0
 10
153.7947379675004
 20
-745.5372528311929
 30
0.0
 10
156.9918477808178
 20
-746.7878119106085
 30
0.0
 10
160.2807997964258
 20
-749.2386605631882
 30
0.0
 10
161.9586224780342
 20
-751.397165363357
 30
0.0
 10
162.6349423883155
 20
-752.5629383196094
 30
0.0
  0
SPLINE
  5
20E
330
1F
100
AcDbEntity
  8
Linee visibili 2D - Tangent
100
AcDbSpline
210
0.0
220
0.0
230
1.0
 70
    12
 71
     3
 72
    10
 73
     6
 74
     0
 42
0.0000000001
 43
0.0000000001
 40
1.0
 40
1.0
 40
1.0
 40
1.0
 40
1.499996959584556
 40
1.499996959584556
 40
2.0
 40
2.0
 40
2.0
 40
2.0
 10
162.6349423883155
 20
-752.5629383196094
 30
0.0
 41
1.0
 10
163.2080355712139
 20
-753.5504760552073
 30
0.0
 41
1.0
 10
163.6805100413644
 20
-754.6503754293548
 30
0.0
 41
1.0
 10
164.3258764914292
 20
-757.0155402380176
 30
0.0
 41
1.0
 10
164.4958015191746
 20
-758.2860859349932
 30
0.0
 41
1.0
 10
164.4900553498741
 20
-759.5543690086131
 30
0.0
 41
1.0
  0
SPLINE
  5
20F
330
1F
100
AcDbEntity
  8
Linee visibili 2D - Tangent
100
AcDbSpline
210
0.0
220
0.0
230
1.0
 70
    24
 71
     2
 72
     6
 73
     3
 74
     0
 42
0.0000000001
 43
0.0000000001
 40
0.0
 40
0.0
 40
0.0
 40
39.04863396168452
 40
39.04863396168452
 40
39.04863396168452
 10
164.4900553498741
 20
-759.5543690086131
 30
0.0
 10
164.4900553498741
 20
-779.0786859894553
 30
0.0
 10
164.490055349874
 20
-798.6030029702976
 30
0.0
  0
SPLINE
  5
210
330
1F
100
AcDbEntity
  8
Linee visibili 2D - Tangent
100
AcDbSpline
210
0.0
220
0.0
230
1.0
 70
     8
 71
     3
 72
    15
 73
    11
 74
     0
 42
0.0000000001
 43
0.0000000001
 40
0.0
 40
0.0
 40
0.0
 40
0.0
 40
6.805039244091782
 40
13.51593352105326
 40
20.28768269059963
 40
27.10528102336968
 40
34.00699602182621
 40
40.92730979785286
 40
48.02888084775964
 40
54.98084543312912
 40
54.98084543312912
 40
54.98084543312912
 40
54.98084543312912
 10
164.490055349874
 20
-798.6030029702976
 30
0.0
 10
164.4947631089935
 20
-800.8712506125203
 30
0.0
 10
164.0468480804122
 20
-805.3780413690725
 30
0.0
 10
162.0163977617622
 20
-811.8654108359843
 30
0.0
 10
158.7125290067631
 20
-817.8109259267559
 30
0.0
 10
154.2453829763276
 20
-823.0228770970304
 30
0.0
 10
148.8048223273163
 20
-827.2874977135796
 30
0.0
 10
142.5646618759426
 20
-830.4731127150471
 30
0.0
 10
135.8153650692891
 20
-832.417757550702
 30
0.0
 10
131.1289905820975
 20
-832.8405472508931
 30
0.0
 10
128.8116512510001
 20
-832.8286663044316
 30
0.0
  0
SPLINE
  5
211
330
1F
100
AcDbEntity
  8
Linee visibili 2D - Tangent
100
AcDbSpline
210
0.0
220
0.0
230
1.0
 70
    12
 71
     2
 72
     6
 73
     3
 74
     0
 42
0.0000000001
 43
0.0000000001
 40
0.0
 40
0.0
 40
0.0
 40
5.781039068875335
 40
5.781039068875335
 40
5.781039068875335
 10
128.8116512510001
 20
-832.8286663044316
 30
0.0
 41
1.0
 10
125.9211357804061
 20
-832.8233565939653
 30
0.0
 41
0.99999957812011
 10
123.0306154330001
 20
-832.8233571364309
 30
0.0
 41
1.0
  0
SPLINE
  5
212
330
1F
100
AcDbEntity
  8
Linee visibili 2D - Tangent
100
AcDbSpline
210
0.0
220
0.0
230
1.0
 70
    24
 71
     2
 72
     6
 73
     3
 74
     0
 42
0.0000000001
 43
0.0000000001
 40
0.0
 40
0.0
 40
0.0
 40
6.061230866237111
 40
6.061230866237111
 40
6.061230866237111
 10
123.0306154330001
 20
-832.8233571364316
 30
0.0
 10
119.9999999998815
 20
-832.8233571363131
 30
0.0
 10
116.969384566763
 20
-832.8233571361943
 30
0.0
  0
SPLINE
  5
213
330
1F
100
AcDbEntity
  8
Linee visibili 2D - Tangent
100
AcDbSpline
210
0.0
220
0.0
230
1.0
 70
    12
 71
     2
 72
     6
 73
     3
 74
     0
 42
0.0000000001
 43
0.0000000001
 40
0.0
 40
0.0
 40
0.0
 40
5.781039068638628
 40
5.781039068638628
 40
5.781039068638628
 10
116.969384566763
 20
-832.8233571361943
 30
0.0
 41
1.0
 10
114.0788642194753
 20
-832.823356593847
 30
0.0
 41
0.99999957812011
 10
111.1883487489999
 20
-832.8286663044318
 30
0.0
 41
1.0
  0
SPLINE
  5
214
330
1F
100
AcDbEntity
  8
Linee visibili 2D - Tangent
100
AcDbSpline
210
0.0
220
0.0
230
1.0
 70
     8
 71
     3
 72
    15
 73
    11
 74
     0
 42
0.0000000001
 43
0.0000000001
 40
0.0
 40
0.0
 40
0.0
 40
0.0
 40
6.951964585381724
 40
14.05353563529899
 40
20.97384941133262
 40
27.87556440979147
 40
34.69316274255832
 40
41.46491191209763
 40
48.17580618904873
 40
54.98084543312861
 40
54.98084543312861
 40
54.98084543312861
 40
54.98084543312861
 10
111.1883487489999
 20
-832.8286663044318
 30
0.0
 10
108.8710094178996
 20
-832.8405472508976
 30
0.0
 10
104.1846349306984
 20
-832.4177575507158
 30
0.0
 10
97.43533812403279
 20
-830.4731127150784
 30
0.0
 10
91.19517767264028
 20
-827.2874977136298
 30
0.0
 10
85.75461702361257
 20
-823.0228770971006
 30
0.0
 10
81.28747099315615
 20
-817.8109259268456
 30
0.0
 10
77.98360223814076
 20
-811.8654108360912
 30
0.0
 10
75.95315191947452
 20
-805.3780413691949
 30
0.0
 10
75.5052368908839
 20
-800.8712506126503
 30
0.0
 10
75.50994465000008
 20
-798.6030029704318
 30
0.0
  0
SPLINE
  5
215
330
1F
100
AcDbEntity
  8
Linee visibili 2D - Tangent
100
AcDbSpline
210
0.0
220
0.0
230
1.0
 70
    24
 71
     2
 72
     6
 73
     3
 74
     0
 42
0.0000000001
 43
0.0000000001
 40
0.0
 40
0.0
 40
0.0
 40
39.04863396200005
 40
39.04863396200005
 40
39.04863396200005
 10
75.50994465000008
 20
-798.6030029704318
 30
0.0
 10
75.50994465004851
 20
-779.078685989432
 30
0.0
 10
75.50994465009694
 20
-759.5543690084318
 30
0.0
  0
SPLINE
  5
216
330
1F
100
AcDbEntity
  8
Linee visibili 2D - Tangent
100
AcDbSpline
210
0.0
220
0.0
230
1.0
 70
    12
 71
     3
 72
    10
 73
     6
 74
     0
 42
0.0000000001
 43
0.0000000001
 40
3.104106311533008
 40
3.104106311533008
 40
3.104106311533008
 40
3.104106311533008
 40
3.604106311533008
 40
3.604106311533008
 40
4.104106311533008
 40
4.104106311533008
 40
4.104106311533008
 40
4.104106311533008
 10
75.50994465009694
 20
-759.5543690084318
 30
0.0
 41
1.0
 10
75.50419688375541
 20
-758.2860865329146
 30
0.0
 41
1.0
 10
75.67412019006133
 20
-757.0155414806187
 30
0.0
 41
1.0
 10
76.31948713902329
 20
-754.6503635726097
 30
0.0
 41
1.0
 10
76.79196746883555
 20
-753.5504524669802
 30
0.0
 41
1.0
 10
77.36504681857446
 20
-752.5629705086043
 30
0.0
 41
1.0
  0
SPLINE
  5
217
330
1F
100
AcDbEntity
  8
Linee visibili 2D - Tangent
100
AcDbSpline
210
0.0
220
0.0
230
1.0
 70
     8
 71
     3
 72
    12
 73
     8
 74
     0
 42
0.0000000001
 43
0.0000000001
 40
0.0
 40
0.0
 40
0.0
 40
0.0
 40
2.02303449067017
 40
4.043339468000154
 40
8.127673582587794
 40
12.19352609828855
 40
16.28527394255073
 40
16.28527394255073
 40
16.28527394255073
 40
16.28527394255073
 10
77.36504681857446
 20
-752.5629705086043
 30
0.0
 10
77.7034557470688
 20
-751.9796506171277
 30
0.0
 10
78.45896685258505
 20
-750.8599504317971
 30
0.0
 10
80.26488503905898
 20
-748.8320352342064
 30
0.0
 10
83.00813932639266
 20
-746.787802737443
 30
0.0
 10
86.84195581596691
 20
-745.2882408018904
 30
0.0
 10
89.56825500692707
 20
-744.9889407133921
 30
0.0
 10
90.93183002912338
 20
-745.0173683522685
 30
0.0
  0
SPLINE
  5
218
330
1F
100
AcDbEntity
  8
Linee visibili 2D - Tangent
100
AcDbSpline
210
0.0
220
0.0
230
1.0
 70
    12
 71
     2
 72
     6
 73
     3
 74
     0
 42
0.0000000001
 43
0.0000000001
 40
0.0
 40
0.0
 40
0.0
 40
14.82590978607378
 40
14.82590978607378
 40
14.82590978607378
 10
90.93183002912338
 20
-745.0173683522685
 30
0.0
 41
1.0
 10
98.34465539210761
 20
-745.0650343729477
 30
0.0
 41
0.9999952003947754
 10
105.7576338025001
 20
-745.0667660444318
 30
0.0
 41
1.0
  0
SPLINE
  5
219
330
1F
100
AcDbEntity
  8
Linee visibili 2D
100
AcDbSpline
210
0.0
220
0.0
230
1.0
 70
    24
 71
     2
 72
     6
 73
     3
 74
     0
 42
0.0000000001
 43
0.0000000001
 40
0.0
 40
0.0
 40
0.0
 40
70.0
 40
70.0
 40
70.0
 10
80.0
 20
-401.7220926874318
 30
0.0
 10
45.0
 20
-401.7220926874318
 30
0.0
 10
10.0
 20
-401.7220926874318
 30
0.0
  0
SPLINE
  5
21A
330
1F
100
AcDbEntity
  8
Linee visibili 2D
100
AcDbSpline
210
0.0
220
0.0
230
1.0
 70
    24
 71
     2
 72
     6
 73
     3
 74
     0
 42
0.0000000001
 43
0.0000000001
 40
-26.6614946458335
 40
-26.6614946458335
 40
-26.6614946458335
 40
0.0
 40
0.0
 40
0.0
 10
10.0
 20
-401.7220926874318
 30
0.0
 10
9.999999999969418
 20
-415.0528400103485
 30
0.0
 10
9.999999999938836
 20
-428.3835873332654
 30
0.0
  0
SPLINE
  5
21B
330
1F
100
AcDbEntity
  8
Linee visibili 2D
100
AcDbSpline
210
0.0
220
0.0
230
1.0
 70
    12
 71
     2
 72
     6
 73
     3
 74
     0
 42
0.0000000001
 43
0.0000000001
 40
0.0
 40
0.0
 40
0.0
 40
5.639426413759719
 40
5.639426413759719
 40
5.639426413759719
 10
9.999999999938836
 20
-428.3835873332654
 30
0.0
 41
1.0
 10
9.999999999789773
 20
-431.5458649935507
 30
0.0
 41
0.8451542547166553
 10
12.85714285703443
 20
-432.9011268479666
 30
0.0
 41
1.0
  0
SPLINE
  5
21C
330
1F
100
AcDbEntity
  8
Linee visibili 2D
100
AcDbSpline
210
0.0
220
0.0
230
1.0
 70
    12
 71
     2
 72
     6
 73
     3
 74
     0
 42
0.0000000001
 43
0.0000000001
 40
-33.8365584811457
 40
-33.8365584811457
 40
-33.8365584811457
 40
0.0
 40
0.0
 40
0.0
 10
12.85714285703443
 20
-432.9011268479666
 30
0.0
 41
1.0
 10
29.99999999967914
 20
-441.0326979738445
 30
0.0
 41
0.8451542547305308
 10
29.99999999997453
 20
-460.0063639345473
 30
0.0
 41
1.0
  0
SPLINE
  5
21D
330
1F
100
AcDbEntity
  8
Linee visibili 2D
100
AcDbSpline
210
0.0
220
0.0
230
1.0
 70
    24
 71
     2
 72
     6
 73
     3
 74
     0
 42
0.0000000001
 43
0.0000000001
 40
0.0
 40
0.0
 40
0.0
 40
92.21698504220491
 40
92.21698504220491
 40
92.21698504220491
 10
29.99999999997453
 20
-460.0063639345473
 30
0.0
 10
29.99999999998101
 20
-506.1148564556497
 30
0.0
 10
29.99999999998749
 20
-552.2233489767522
 30
0.0
  0
SPLINE
  5
21E
330
1F
100
AcDbEntity
  8
Linee visibili 2D
100
AcDbSpline
210
0.0
220
0.0
230
1.0
 70
    24
 71
     2
 72
     6
 73
     3
 74
     0
 42
0.0000000001
 43
0.0000000001
 40
0.0
 40
0.0
 40
0.0
 40
5.0
 40
5.0
 40
5.0
 10
5.0
 20
-401.7220926874318
 30
0.0
 10
2.5
 20
-401.7220926874318
 30
0.0
 10
0.0
 20
-401.7220926874318
 30
0.0
  0
SPLINE
  5
21F
330
1F
100
AcDbEntity
  8
Linee visibili 2D
100
AcDbSpline
210
0.0
220
0.0
230
1.0
 70
    24
 71
     2
 72
     6
 73
     3
 74
     0
 42
0.0000000001
 43
0.0000000001
 40
0.0
 40
0.0
 40
0.0
 40
158.3484860980573
 40
158.3484860980573
 40
158.3484860980573
 10
0.0
 20
-401.7220926874318
 30
0.0
 10
0.0
 20
-480.8963357364606
 30
0.0
 10
0.0
 20
-560.0705787854893
 30
0.0
  0
SPLINE
  5
220
330
1F
100
AcDbEntity
  8
Linee visibili 2D - Tangent
100
AcDbSpline
210
0.0
220
0.0
230
1.0
 70
    24
 71
     2
 72
     6
 73
     3
 74
     0
 42
0.0000000001
 43
0.0000000001
 40
0.0
 40
0.0
 40
0.0
 40
5.0
 40
5.0
 40
5.0
 10
295.0
 20
-951.7220926874312
 30
0.0
 10
297.5
 20
-951.7220926874315
 30
0.0
 10
300.0
 20
-951.7220926874319
 30
0.0
  0
SPLINE
  5
221
330
1F
100
AcDbEntity
  8
Linee visibili 2D - Tangent
100
AcDbSpline
210
0.0
220
0.0
230
1.0
 70
    24
 71
     2
 72
     6
 73
     3
 74
     0
 42
0.0000000001
 43
0.0000000001
 40
0.0
 40
0.0
 40
0.0
 40
300.0000000000001
 40
300.0000000000001
 40
300.0000000000001
 10
300.0
 20
-951.7220926874319
 30
0.0
 10
300.0
 20
-801.7220926874319
 30
0.0
 10
300.0
 20
-651.7220926874318
 30
0.0
  0
SPLINE
  5
222
330
1F
100
AcDbEntity
  8
Linee visibili 2D
100
AcDbSpline
210
0.0
220
0.0
230
1.0
 70
    24
 71
     2
 72
     6
 73
     3
 74
     0
 42
0.0000000001
 43
0.0000000001
 40
-5.0
 40
-5.0
 40
-5.0
 40
0.0
 40
0.0
 40
0.0
 10
40.0
 20
-1046.722092687432
 30
0.0
 10
40.0
 20
-1049.222092687432
 30
0.0
 10
40.0
 20
-1051.722092687432
 30
0.0
  0
SPLINE
  5
223
330
1F
100
AcDbEntity
  8
Linee visibili 2D
100
AcDbSpline
210
0.0
220
0.0
230
1.0
 70
    24
 71
     2
 72
     6
 73
     3
 74
     0
 42
0.0000000001
 43
0.0000000001
 40
0.0
 40
0.0
 40
0.0
 40
160.0000000000002
 40
160.0000000000002
 40
160.0000000000002
 10
40.0
 20
-1051.722092687432
 30
0.0
 10
120.0000000000001
 20
-1051.722092687432
 30
0.0
 10
200.0000000000002
 20
-1051.722092687432
 30
0.0
  0
SPLINE
  5
224
330
1F
100
AcDbEntity
  8
Linee visibili 2D
100
AcDbSpline
210
0.0
220
0.0
230
1.0
 70
    24
 71
     2
 72
     6
 73
     3
 74
     0
 42
0.0000000001
 43
0.0000000001
 40
0.0
 40
0.0
 40
0.0
 40
158.3484860980573
 40
158.3484860980573
 40
158.3484860980573
 10
240.0
 20
-560.0705787854893
 30
0.0
 10
240.0
 20
-480.8963357364606
 30
0.0
 10
240.0
 20
-401.7220926874318
 30
0.0
  0
SPLINE
  5
225
330
1F
100
AcDbEntity
  8
Linee visibili 2D
100
AcDbSpline
210
0.0
220
0.0
230
1.0
 70
    24
 71
     2
 72
     6
 73
     3
 74
     0
 42
0.0000000001
 43
0.0000000001
 40
0.0
 40
0.0
 40
0.0
 40
5.0
 40
5.0
 40
5.0
 10
240.0
 20
-401.7220926874318
 30
0.0
 10
237.5
 20
-401.7220926874318
 30
0.0
 10
235.0
 20
-401.7220926874318
 30
0.0
  0
SPLINE
  5
226
330
1F
100
AcDbEntity
  8
Linee visibili 2D
100
AcDbSpline
210
0.0
220
0.0
230
1.0
 70
    24
 71
     2
 72
     6
 73
     3
 74
     0
 42
0.0000000001
 43
0.0000000001
 40
0.0
 40
0.0
 40
0.0
 40
69.99982545309649
 40
69.99982545309649
 40
69.99982545309649
 10
229.9998254531522
 20
-428.3835873333764
 30
0.0
 10
194.999912726604
 20
-428.3835873333209
 30
0.0
 10
160.0000000000557
 20
-428.3835873332653
 30
0.0
  0
SPLINE
  5
228
330
1F
100
AcDbEntity
  8
Linee visibili 2D
100
AcDbSpline
210
0.0
220
0.0
230
1.0
 70
    24
 71
     2
 72
     6
 73
     3
 74
     0
 42
0.0000000001
 43
0.0000000001
 40
0.0
 40
0.0
 40
0.0
 40
80.0
 40
80.0
 40
80.0
 10
160.0
 20
-401.7220926874318
 30
0.0
 10
120.0
 20
-401.7220926874318
 30
0.0
 10
80.0
 20
-401.7220926874318
 30
0.0
  0
SPLINE
  5
22A
330
1F
100
AcDbEntity
  8
Linee visibili 2D
100
AcDbSpline
210
0.0
220
0.0
230
1.0
 70
    24
 71
     2
 72
     6
 73
     3
 74
     0
 42
0.0000000001
 43
0.0000000001
 40
0.0
 40
0.0
 40
0.0
 40
70.00000000008596
 40
70.00000000008596
 40
70.00000000008596
 10
80.00000000005547
 20
-428.3835873333764
 30
0.0
 10
45.00000000001251
 20
-428.3835873333209
 30
0.0
 10
9.999999999969533
 20
-428.3835873332654
 30
0.0
  0
SPLINE
  5
22B
330
1F
100
AcDbEntity
  8
Linee visibili 2D
100
AcDbSpline
210
0.0
220
0.0
230
1.0
 70
    28
 71
     3
 72
     8
 73
     4
 74
     0
 42
0.0000000001
 43
0.0000000001
 40
0.890625
 40
0.890625
 40
0.890625
 40
0.890625
 40
1.0
 40
1.0
 40
1.0
 40
1.0
 10
120.0
 20
-982.8182685471967
 30
0.0
 41
1.0
 10
120.0
 20
-982.8178533619279
 30
0.0
 41
1.0
 10
120.0
 20
-982.8421953187442
 30
0.0
 41
1.0
 10
120.0
 20
-982.892357044432
 30
0.0
 41
1.0
  0
SPLINE
  5
22C
330
1F
100
AcDbEntity
  8
Linee visibili 2D
100
AcDbSpline
210
0.0
220
0.0
230
1.0
 70
    12
 71
     3
 72
    12
 73
     8
 74
     0
 42
0.0000000001
 43
0.0000000001
 40
-4.529478987373352
 40
-4.529478987373352
 40
-4.529478987373352
 40
-4.529478987373352
 40
-4.029478987373352
 40
-4.029478987373352
 40
-3.779478987373353
 40
-3.779478987373353
 40
-3.529478987373353
 40
-3.529478987373353
 40
-3.529478987373353
 40
-3.529478987373353
 10
120.0
 20
-982.892357044432
 30
0.0
 41
1.0
 10
106.6666010149911
 20
-982.8827929974139
 30
0.0
 41
1.0
 10
93.33322196198194
 20
-982.8724637253955
 30
0.0
 41
1.0
 10
73.33318300696851
 20
-982.8558324223683
 30
0.0
 41
1.0
 10
66.66650813496403
 20
-982.8501004003593
 30
0.0
 41
1.0
 10
53.333171577955
 20
-982.8382791073414
 30
0.0
 41
1.0
 10
46.66646370695047
 20
-982.8335280283321
 30
0.0
 41
1.0
 10
39.99999999994589
 20
-982.8216258823232
 30
0.0
 41
1.0
  0
SPLINE
  5
22D
330
1F
100
AcDbEntity
  8
Linee visibili 2D
100
AcDbSpline
210
0.0
220
0.0
230
1.0
 70
    12
 71
     2
 72
     6
 73
     3
 74
     0
 42
0.0000000001
 43
0.0000000001
 40
4.528642080961534
 40
4.528642080961534
 40
4.528642080961534
 40
4.718159411407536
 40
4.718159411407536
 40
4.718159411407536
 10
39.99999999994589
 20
-982.8216258823232
 30
0.0
 41
1.0
 10
40.00455973428381
 20
-982.7446153306391
 30
0.0
 41
0.965556070030418
 10
40.00904953303565
 20
-982.7456819564227
 30
0.0
 41
0.939633875443447
  0
SPLINE
  5
22E
330
1F
100
AcDbEntity
  8
Linee visibili 2D
100
AcDbSpline
210
0.0
220
0.0
230
1.0
 70
     8
 71
     3
 72
    12
 73
     8
 74
     0
 42
0.0000000001
 43
0.0000000001
 40
0.0
 40
0.0
 40
0.0
 40
0.0
 40
3.952891661828274
 40
7.905859348406123
 40
10.85393837485124
 40
21.01203880867793
 40
79.99103014913446
 40
79.99103014913446
 40
79.99103014913446
 40
79.99103014913446
 10
40.00904953303574
 20
-982.7456819564227
 30
0.0
 10
41.32667772975718
 20
-982.7480723224516
 30
0.0
 10
43.9619605325322
 20
-982.7521351807886
 30
0.0
 10
47.5799363356864
 20
-982.7569012248403
 30
0.0
 10
53.26631519994271
 20
-982.7622554062847
 30
0.0
 10
77.29469165292494
 20
-982.7837246108
 30
0.0
 10
100.340377414052
 20
-982.8023320634828
 30
0.0
 10
120.0000389816389
 20
-982.8163945178127
 30
0.0
  0
SPLINE
  5
22F
330
1F
100
AcDbEntity
  8
Linee visibili 2D
100
AcDbSpline
210
0.0
220
0.0
230
1.0
 70
     8
 71
     3
 72
    12
 73
     8
 74
     0
 42
0.0000000001
 43
0.0000000001
 40
0.0
 40
0.0
 40
0.0
 40
0.0
 40
28.83403996349699
 40
58.97891338297097
 40
69.13701381368468
 40
72.08509283922551
 40
79.99095218575148
 40
79.99095218575148
 40
79.99095218575148
 40
79.99095218575148
 10
120.0000389816389
 20
-982.8163945178127
 30
0.0
 10
129.6113877157024
 20
-982.8094750812013
 30
0.0
 10
149.2710164826735
 20
-982.794635186158
 30
0.0
 10
172.3166754302208
 20
-982.7750980942081
 30
0.0
 10
186.7336848248422
 20
-982.7622768892823
 30
0.0
 10
193.7376933650382
 20
-982.7556197387677
 30
0.0
 10
197.3556685626754
 20
-982.7502839819002
 30
0.0
 10
199.9909504668788
 20
-982.7456819564227
 30
0.0
  0
SPLINE
  5
230
330
1F
100
AcDbEntity
  8
Linee visibili 2D
100
AcDbSpline
210
0.0
220
0.0
230
1.0
 70
    12
 71
     2
 72
     6
 73
     3
 74
     0
 42
0.0000000001
 43
0.0000000001
 40
2.341225159365055
 40
2.341225159365055
 40
2.341225159365055
 40
2.530742489814629
 40
2.530742489814629
 40
2.530742489814629
 10
199.9909504668788
 20
-982.7456819564227
 30
0.0
 41
0.9396338754437657
 10
199.9954402656171
 20
-982.7446153306397
 30
0.0
 41
0.9655560700306326
 10
199.999999999945
 20
-982.8216258823232
 30
0.0
 41
1.0
  0
SPLINE
  5
231
330
1F
100
AcDbEntity
  8
Linee visibili 2D
100
AcDbSpline
210
0.0
220
0.0
230
1.0
 70
    12
 71
     3
 72
    12
 73
     8
 74
     0
 42
0.0000000001
 43
0.0000000001
 40
-2.0
 40
-2.0
 40
-2.0
 40
-2.0
 40
-1.75
 40
-1.75
 40
-1.5
 40
-1.5
 40
-1.0
 40
-1.0
 40
-1.0
 40
-1.0
 10
199.999999999945
 20
-982.8216258823232
 30
0.0
 41
1.0
 10
193.3335362929494
 20
-982.8335280283322
 30
0.0
 41
1.0
 10
186.6668284219541
 20
-982.8382791073414
 30
0.0
 41
1.0
 10
173.3334918649632
 20
-982.8501004003596
 30
0.0
 41
1.0
 10
166.6668169929678
 20
-982.8558324223683
 30
0.0
 41
1.0
 10
146.6667780379817
 20
-982.8724637253955
 30
0.0
 41
1.0
 10
133.3333989849907
 20
-982.8827929974139
 30
0.0
 41
1.0
 10
120.0
 20
-982.892357044432
 30
0.0
 41
1.0
  0
SPLINE
  5
232
330
1F
100
AcDbEntity
  8
Linee visibili 2D - Tangent
100
AcDbSpline
210
0.0
220
0.0
230
1.0
 70
    12
 71
     2
 72
     6
 73
     3
 74
     0
 42
0.0000000001
 43
0.0000000001
 40
-102.3734916255995
 40
-102.3734916255995
 40
-102.3734916255995
 40
0.0
 40
0.0
 40
0.0
 10
-25.17298893515931
 20
-701.7220926874317
 30
0.0
 41
1.0
 10
-25.17298893499936
 20
-636.5491037523262
 30
0.0
 41
0.7071067811874162
 10
40.00000000010596
 20
-636.5491037523258
 30
0.0
 41
1.0
  0
SPLINE
  5
233
330
1F
100
AcDbEntity
  8
Linee visibili 2D - Tangent
100
AcDbSpline
210
0.0
220
0.0
230
1.0
 70
    24
 71
     2
 72
     6
 73
     3
 74
     0
 42
0.0000000001
 43
0.0000000001
 40
0.0
 40
0.0
 40
0.0
 40
159.999999999894
 40
159.999999999894
 40
159.999999999894
 10
40.00000000010596
 20
-636.5491037523258
 30
0.0
 10
120.000000000053
 20
-636.5491037522336
 30
0.0
 10
200.0
 20
-636.5491037521415
 30
0.0
  0
SPLINE
  5
234
330
1F
100
AcDbEntity
  8
Linee visibili 2D - Tangent
100
AcDbSpline
210
0.0
220
0.0
230
1.0
 70
    24
 71
     2
 72
     6
 73
     3
 74
     0
 42
0.0000000001
 43
0.0000000001
 40
0.0
 40
0.0
 40
0.0
 40
29.54423259025749
 40
29.54423259025749
 40
29.54423259025749
 10
200.0
 20
-636.5491037521415
 30
0.0
 10
199.9999999999584
 20
-651.3212200472702
 30
0.0
 10
199.9999999999168
 20
-666.0933363423991
 30
0.0
  0
SPLINE
  5
235
330
1F
100
AcDbEntity
  8
Linee visibili 2D - Tangent
100
AcDbSpline
210
0.0
220
0.0
230
1.0
 70
    12
 71
     2
 72
     6
 73
     3
 74
     0
 42
0.0000000001
 43
0.0000000001
 40
0.0
 40
0.0
 40
0.0
 40
55.96551959515843
 40
55.96551959515843
 40
55.96551959515843
 10
199.9999999999168
 20
-666.0933363423991
 30
0.0
 41
1.0
 10
235.6287563449923
 20
-666.0933363423562
 30
0.0
 41
0.7071067811873024
 10
235.6287563451112
 20
-701.722092687432
 30
0.0
 41
1.0
  0
SPLINE
  5
236
330
1F
100
AcDbEntity
  8
Linee visibili 2D - Tangent
100
AcDbSpline
210
0.0
220
0.0
230
1.0
 70
    24
 71
     2
 72
     6
 73
     3
 74
     0
 42
0.0000000001
 43
0.0000000001
 40
0.0
 40
0.0
 40
0.0
 40
29.54423258988891
 40
29.54423258988891
 40
29.54423258988891
 10
235.6287563451112
 20
-701.722092687432
 30
0.0
 10
250.4008726400556
 20
-701.722092687432
 30
0.0
 10
265.1729889349999
 20
-701.722092687432
 30
0.0
  0
SPLINE
  5
237
330
1F
100
AcDbEntity
  8
Linee visibili 2D - Tangent
100
AcDbSpline
210
0.0
220
0.0
230
1.0
 70
    24
 71
     2
 72
     6
 73
     3
 74
     0
 42
0.0000000001
 43
0.0000000001
 40
-249.9999999999995
 40
-249.9999999999995
 40
-249.9999999999995
 40
0.0
 40
0.0
 40
0.0
 10
265.1729889349999
 20
-701.722092687432
 30
0.0
 10
265.1729889351438
 20
-826.7220926874315
 30
0.0
 10
265.1729889352878
 20
-951.7220926874312
 30
0.0
  0
SPLINE
  5
238
330
1F
100
AcDbEntity
  8
Linee visibili 2D - Tangent
100
AcDbSpline
210
0.0
220
0.0
230
1.0
 70
    12
 71
     2
 72
     6
 73
     3
 74
     0
 42
0.0000000001
 43
0.0000000001
 40
-102.3734916254381
 40
-102.3734916254381
 40
-102.3734916254381
 40
0.0
 40
0.0
 40
0.0
 10
265.1729889352878
 20
-951.7220926874312
 30
0.0
 41
1.0
 10
265.1729889349998
 20
-1016.895081622272
 30
0.0
 41
0.7071067811898404
 10
200.0000000001598
 20
-1016.895081622591
 30
0.0
 41
1.0
  0
SPLINE
  5
239
330
1F
100
AcDbEntity
  8
Linee visibili 2D - Tangent
100
AcDbSpline
210
0.0
220
0.0
230
1.0
 70
    24
 71
     2
 72
     6
 73
     3
 74
     0
 42
0.0000000001
 43
0.0000000001
 40
0.0
 40
0.0
 40
0.0
 40
5.0
 40
5.0
 40
5.0
 10
230.0
 20
-401.7220926874318
 30
0.0
 10
232.5
 20
-401.7220926874318
 30
0.0
 10
235.0
 20
-401.7220926874318
 30
0.0
  0
SPLINE
  5
23A
330
1F
100
AcDbEntity
  8
Linee visibili 2D - Tangent
100
AcDbSpline
210
0.0
220
0.0
230
1.0
 70
    24
 71
     2
 72
     6
 73
     3
 74
     0
 42
0.0000000001
 43
0.0000000001
 40
0.0
 40
0.0
 40
0.0
 40
156.3250300212418
 40
156.3250300212418
 40
156.3250300212418
 10
235.0
 20
-401.7220926874318
 30
0.0
 10
235.0
 20
-479.8846076980528
 30
0.0
 10
235.0
 20
-558.0471227086737
 30
0.0
  0
SPLINE
  5
23B
330
1F
100
AcDbEntity
  8
Linee visibili 2D
100
AcDbSpline
210
0.0
220
0.0
230
1.0
 70
    24
 71
     2
 72
     6
 73
     3
 74
     0
 42
0.0000000001
 43
0.0000000001
 40
0.0
 40
0.0
 40
0.0
 40
104.2607313055826
 40
104.2607313055826
 40
104.2607313055826
 10
10.00000000001319
 20
-556.3281725455246
 30
0.0
 10
10.00000000000659
 20
-504.1978068927334
 30
0.0
 10
10.0
 20
-452.067441239942
 30
0.0
  0
SPLINE
  5
23C
330
1F
100
AcDbEntity
  8
Linee visibili 2D
100
AcDbSpline
210
0.0
220
0.0
230
1.0
 70
    24
 71
     2
 72
     6
 73
     3
 74
     0
 42
0.0000000001
 43
0.0000000001
 40
-23.59572298233979
 40
-23.59572298233979
 40
-23.59572298233979
 40
0.0
 40
0.0
 40
0.0
 10
10.0
 20
-452.067441239942
 30
0.0
 10
10.0
 20
-440.2695797487721
 30
0.0
 10
10.0
 20
-428.4717182576023
 30
0.0
  0
SPLINE
  5
23D
330
1F
100
AcDbEntity
  8
Linee visibili 2D - Tangent
100
AcDbSpline
210
0.0
220
0.0
230
1.0
 70
    24
 71
     2
 72
     6
 73
     3
 74
     0
 42
0.0000000001
 43
0.0000000001
 40
0.0
 40
0.0
 40
0.0
 40
5.000000000000171
 40
5.000000000000171
 40
5.000000000000171
 10
40.0
 20
-551.722092687432
 30
0.0
 10
40.0
 20
-554.2220926874319
 30
0.0
 10
40.0
 20
-556.7220926874321
 30
0.0
  0
SPLINE
  5
23E
330
1F
100
AcDbEntity
  8
Linee visibili 2D - Tangent
100
AcDbSpline
210
0.0
220
0.0
230
1.0
 70
    24
 71
     2
 72
     6
 73
     3
 74
     0
 42
0.0000000001
 43
0.0000000001
 40
0.0
 40
0.0
 40
0.0
 40
160.0000000000006
 40
160.0000000000006
 40
160.0000000000006
 10
40.0
 20
-556.7220926874321
 30
0.0
 10
120.0000000000003
 20
-556.7220926874319
 30
0.0
 10
200.0000000000007
 20
-556.7220926874317
 30
0.0
  0
SPLINE
  5
23F
330
1F
100
AcDbEntity
  8
Linee visibili 2D - Tangent
100
AcDbSpline
210
0.0
220
0.0
230
1.0
 70
    12
 71
     2
 72
     6
 73
     3
 74
     0
 42
0.0000000001
 43
0.0000000001
 40
0.0
 40
0.0
 40
0.0
 40
149.2256510455146
 40
149.2256510455146
 40
149.2256510455146
 10
200.0000000000007
 20
-556.7220926874317
 30
0.0
 41
1.0
 10
295.0000000000001
 20
-556.7220926874326
 30
0.0
 41
0.7071067811865525
 10
295.0000000000002
 20
-651.7220926874317
 30
0.0
 41
1.0
  0
SPLINE
  5
240
330
1F
100
AcDbEntity
  8
Linee visibili 2D - Tangent
100
AcDbSpline
210
0.0
220
0.0
230
1.0
 70
    12
 71
     2
 72
     6
 73
     3
 74
     0
 42
0.0000000001
 43
0.0000000001
 40
-149.2256510455161
 40
-149.2256510455161
 40
-149.2256510455161
 40
0.0
 40
0.0
 40
0.0
 10
200.0
 20
-1046.722092687432
 30
0.0
 41
1.0
 10
295.0000000000009
 20
-1046.722092687432
 30
0.0
 41
0.7071067811865443
 10
295.0
 20
-951.7220926874312
 30
0.0
 41
1.0
  0
SPLINE
  5
241
330
1F
100
AcDbEntity
  8
Linee visibili 2D - Tangent
100
AcDbSpline
210
0.0
220
0.0
230
1.0
 70
    24
 71
     2
 72
     6
 73
     3
 74
     0
 42
0.0000000001
 43
0.0000000001
 40
-299.9999999999995
 40
-299.9999999999995
 40
-299.9999999999995
 40
0.0
 40
0.0
 40
0.0
 10
295.0
 20
-951.7220926874312
 30
0.0
 10
295.0
 20
-801.7220926874315
 30
0.0
 10
295.0
 20
-651.7220926874317
 30
0.0
  0
SPLINE
  5
242
330
1F
100
AcDbEntity
  8
Linee visibili 2D - Tangent
100
AcDbSpline
210
0.0
220
0.0
230
1.0
 70
    24
 71
     2
 72
     6
 73
     3
 74
     0
 42
0.0000000001
 43
0.0000000001
 40
0.0
 40
0.0
 40
0.0
 40
5.0
 40
5.0
 40
5.0
 10
295.0
 20
-651.7220926874317
 30
0.0
 10
297.5
 20
-651.7220926874317
 30
0.0
 10
300.0
 20
-651.7220926874318
 30
0.0
  0
SPLINE
  5
243
330
1F
100
AcDbEntity
  8
Linee visibili 2D - Tangent
100
AcDbSpline
210
0.0
220
0.0
230
1.0
 70
    12
 71
     2
 72
     6
 73
     3
 74
     0
 42
0.0000000001
 43
0.0000000001
 40
0.0
 40
0.0
 40
0.0
 40
157.0796326794895
 40
157.0796326794895
 40
157.0796326794895
 10
300.0
 20
-651.7220926874318
 30
0.0
 41
1.0
 10
300.0000000000001
 20
-551.7220926874321
 30
0.0
 41
0.7071067811865481
 10
200.0000000000002
 20
-551.7220926874317
 30
0.0
 41
1.0
  0
SPLINE
  5
244
330
1F
100
AcDbEntity
  8
Linee visibili 2D - Tangent
100
AcDbSpline
210
0.0
220
0.0
230
1.0
 70
    12
 71
     2
 72
     6
 73
     3
 74
     0
 42
0.0000000001
 43
0.0000000001
 40
-157.0796326794892
 40
-157.0796326794892
 40
-157.0796326794892
 40
0.0
 40
0.0
 40
0.0
 10
300.0
 20
-951.7220926874319
 30
0.0
 41
1.0
 10
299.9999999999995
 20
-1051.722092687431
 30
0.0
 41
0.7071067811865515
 10
200.0000000000002
 20
-1051.722092687432
 30
0.0
 41
1.0
  0
SPLINE
  5
245
330
1F
100
AcDbEntity
  8
Linee visibili 2D - Tangent
100
AcDbSpline
210
0.0
220
0.0
230
1.0
 70
    24
 71
     2
 72
     6
 73
     3
 74
     0
 42
0.0000000001
 43
0.0000000001
 40
-5.0
 40
-5.0
 40
-5.0
 40
0.0
 40
0.0
 40
0.0
 10
200.0000000000002
 20
-1051.722092687432
 30
0.0
 10
200.0000000000001
 20
-1049.222092687432
 30
0.0
 10
200.0
 20
-1046.722092687432
 30
0.0
  0
SPLINE
  5
246
330
1F
100
AcDbEntity
  8
Linee visibili 2D - Tangent
100
AcDbSpline
210
0.0
220
0.0
230
1.0
 70
    24
 71
     2
 72
     6
 73
     3
 74
     0
 42
0.0000000001
 43
0.0000000001
 40
0.0
 40
0.0
 40
0.0
 40
160.0
 40
160.0
 40
160.0
 10
200.0
 20
-1046.722092687432
 30
0.0
 10
120.0
 20
-1046.722092687432
 30
0.0
 10
40.0
 20
-1046.722092687432
 30
0.0
  0
SPLINE
  5
247
330
1F
100
AcDbEntity
  8
Linee visibili 2D - Tangent
100
AcDbSpline
210
0.0
220
0.0
230
1.0
 70
    12
 71
     2
 72
     6
 73
     3
 74
     0
 42
0.0000000001
 43
0.0000000001
 40
0.0
 40
0.0
 40
0.0
 40
149.2256510455152
 40
149.2256510455152
 40
149.2256510455152
 10
40.0
 20
-1046.722092687432
 30
0.0
 41
1.0
 10
-54.99999999999992
 20
-1046.722092687432
 30
0.0
 41
0.7071067811865479
 10
-55.0
 20
-951.7220926874319
 30
0.0
 41
1.0
  0
SPLINE
  5
248
330
1F
100
AcDbEntity
  8
Linee visibili 2D - Tangent
100
AcDbSpline
210
0.0
220
0.0
230
1.0
 70
    24
 71
     2
 72
     6
 73
     3
 74
     0
 42
0.0000000001
 43
0.0000000001
 40
-5.0
 40
-5.0
 40
-5.0
 40
0.0
 40
0.0
 40
0.0
 10
-55.0
 20
-951.7220926874319
 30
0.0
 10
-57.5
 20
-951.7220926874323
 30
0.0
 10
-60.0
 20
-951.7220926874324
 30
0.0
  0
SPLINE
  5
249
330
1F
100
AcDbEntity
  8
Linee visibili 2D - Tangent
100
AcDbSpline
210
0.0
220
0.0
230
1.0
 70
    12
 71
     2
 72
     6
 73
     3
 74
     0
 42
0.0000000001
 43
0.0000000001
 40
0.0
 40
0.0
 40
0.0
 40
157.0796326794895
 40
157.0796326794895
 40
157.0796326794895
 10
-60.0
 20
-951.7220926874324
 30
0.0
 41
1.0
 10
-59.9999999999998
 20
-1051.722092687432
 30
0.0
 41
0.7071067811865481
 10
40.0
 20
-1051.722092687432
 30
0.0
 41
1.0
  0
SPLINE
  5
24A
330
1F
100
AcDbEntity
  8
Linee visibili 2D - Tangent
100
AcDbSpline
210
0.0
220
0.0
230
1.0
 70
    24
 71
     2
 72
     6
 73
     3
 74
     0
 42
0.0000000001
 43
0.0000000001
 40
0.0
 40
0.0
 40
0.0
 40
300.0000000000003
 40
300.0000000000003
 40
300.0000000000003
 10
-55.0
 20
-951.7220926874319
 30
0.0
 10
-55.0
 20
-801.7220926874317
 30
0.0
 10
-55.0
 20
-651.7220926874317
 30
0.0
  0
SPLINE
  5
24B
330
1F
100
AcDbEntity
  8
Linee visibili 2D - Tangent
100
AcDbSpline
210
0.0
220
0.0
230
1.0
 70
    12
 71
     2
 72
     6
 73
     3
 74
     0
 42
0.0000000001
 43
0.0000000001
 40
0.0
 40
0.0
 40
0.0
 40
149.2256510455151
 40
149.2256510455151
 40
149.2256510455151
 10
-55.0
 20
-651.7220926874317
 30
0.0
 41
1.0
 10
-55.00000000000043
 20
-556.7220926874314
 30
0.0
 41
0.7071067811865453
 10
40.0
 20
-556.722092687432
 30
0.0
 41
1.0
  0
SPLINE
  5
24C
330
1F
100
AcDbEntity
  8
Linee visibili 2D
100
AcDbSpline
210
0.0
220
0.0
230
1.0
 70
    24
 71
     2
 72
     6
 73
     3
 74
     0
 42
0.0000000001
 43
0.0000000001
 40
-4.999999999999773
 40
-4.999999999999773
 40
-4.999999999999773
 40
0.0
 40
0.0
 40
0.0
 10
200.0000000000007
 20
-556.7220926874317
 30
0.0
 10
200.0000000000005
 20
-554.2220926874318
 30
0.0
 10
200.0000000000002
 20
-551.7220926874318
 30
0.0
  0
SPLINE
  5
24D
330
1F
100
AcDbEntity
  8
Linee visibili 2D
100
AcDbSpline
210
0.0
220
0.0
230
1.0
 70
    24
 71
     2
 72
     6
 73
     3
 74
     0
 42
0.0000000001
 43
0.0000000001
 40
0.0
 40
0.0
 40
0.0
 40
160.0000000000002
 40
160.0000000000002
 40
160.0000000000002
 10
200.0000000000002
 20
-551.7220926874318
 30
0.0
 10
120.0000000000001
 20
-551.722092687432
 30
0.0
 10
40.0
 20
-551.722092687432
 30
0.0
  0
SPLINE
  5
24E
330
1F
100
AcDbEntity
  8
Linee visibili 2D
100
AcDbSpline
210
0.0
220
0.0
230
1.0
 70
    12
 71
     2
 72
     6
 73
     3
 74
     0
 42
0.0000000001
 43
0.0000000001
 40
0.0
 40
0.0
 40
0.0
 40
157.0796326794894
 40
157.0796326794894
 40
157.0796326794894
 10
40.0
 20
-551.722092687432
 30
0.0
 41
1.0
 10
-59.99999999999968
 20
-551.7220926874321
 30
0.0
 41
0.7071067811865489
 10
-59.99999999999977
 20
-651.7220926874317
 30
0.0
 41
1.0
  0
SPLINE
  5
24F
330
1F
100
AcDbEntity
  8
Linee visibili 2D
100
AcDbSpline
210
0.0
220
0.0
230
1.0
 70
    24
 71
     2
 72
     6
 73
     3
 74
     0
 42
0.0000000001
 43
0.0000000001
 40
0.0
 40
0.0
 40
0.0
 40
300.0000000000006
 40
300.0000000000006
 40
300.0000000000006
 10
-59.99999999999977
 20
-651.7220926874317
 30
0.0
 10
-59.99999999999989
 20
-801.7220926874321
 30
0.0
 10
-60.0
 20
-951.7220926874324
 30
0.0
  0
SPLINE
  5
250
330
1F
100
AcDbEntity
  8
Linee visibili 2D
100
AcDbSpline
210
0.0
220
0.0
230
1.0
 70
    24
 71
     2
 72
     6
 73
     3
 74
     0
 42
0.0000000001
 43
0.0000000001
 40
0.0
 40
0.0
 40
0.0
 40
23.59570457738961
 40
23.59570457738961
 40
23.59570457738961
 10
230.0
 20
-428.4717366700421
 30
0.0
 10
230.0
 20
-440.269588958737
 30
0.0
 10
230.0
 20
-452.0674412474318
 30
0.0
  0
SPLINE
  5
251
330
1F
100
AcDbEntity
  8
Linee visibili 2D
100
AcDbSpline
210
0.0
220
0.0
230
1.0
 70
    24
 71
     2
 72
     6
 73
     3
 74
     0
 42
0.0000000001
 43
0.0000000001
 40
0.0
 40
0.0
 40
0.0
 40
104.2607312980925
 40
104.2607312980925
 40
104.2607312980925
 10
230.0
 20
-452.0674412474318
 30
0.0
 10
229.9999999999932
 20
-504.1978068964781
 30
0.0
 10
229.9999999999864
 20
-556.3281725455243
 30
0.0
  0
SPLINE
  5
252
330
1F
100
AcDbEntity
  8
Linee visibili 2D - Tangent
100
AcDbSpline
210
0.0
220
0.0
230
1.0
 70
    12
 71
     2
 72
     6
 73
     3
 74
     0
 42
0.0000000001
 43
0.0000000001
 40
3.341377399715518
 40
3.341377399715518
 40
3.341377399715518
 40
3.533002742532021
 40
3.533002742532021
 40
3.533002742532021
 10
199.9945123494811
 20
-670.6617760664788
 30
0.0
 41
0.9388247664851283
 10
199.9972340272008
 20
-670.6638762928213
 30
0.0
 41
0.9650427237057876
 10
200.0000000000255
 20
-670.5858723364673
 30
0.0
 41
1.0
  0
SPLINE
  5
253
330
1F
100
AcDbEntity
  8
Linee visibili 2D - Tangent
100
AcDbSpline
210
0.0
220
0.0
230
1.0
 70
     8
 71
     3
 72
    22
 73
    18
 74
     0
 42
0.0000000001
 43
0.0000000001
 40
-48.75350011122089
 40
-48.75350011122089
 40
-48.75350011122089
 40
-48.75350011122089
 40
-45.69964533761672
 40
-42.67139076706889
 40
-36.57786236760352
 40
-33.53062651054266
 40
-30.49718460509104
 40
-27.44428603867193
 40
-24.3881381862401
 40
-21.35358252302495
 40
-18.31608212867987
 40
-15.26052091878426
 40
-12.21392228007394
 40
-9.182892637155118
 40
-6.130966876918052
 40
-3.066186746209258
 40
0.0
 40
0.0
 40
0.0
 40
0.0
 10
200.0000000000255
 20
-670.5858723364673
 30
0.0
 10
201.0179451975639
 20
-670.5870629155533
 30
0.0
 10
203.0452766806304
 20
-670.6878139964207
 30
0.0
 10
207.0642536873588
 20
-671.2875305341477
 30
0.0
 10
210.963451228243
 20
-672.4750660376253
 30
0.0
 10
214.633550719263
 20
-674.2182354338098
 30
0.0
 10
217.2448678490571
 20
-675.7907897293135
 30
0.0
 10
219.6902289002737
 20
-677.6156722874755
 30
0.0
 10
221.9452866680847
 20
-679.6715446835882
 30
0.0
 10
223.9822516871777
 20
-681.9370142653386
 30
0.0
 10
225.7852156770246
 20
-684.3922886683192
 30
0.0
 10
227.3386379393417
 20
-687.0176373200977
 30
0.0
 10
228.6243927893063
 20
-689.7809921218428
 30
0.0
 10
229.6323439474766
 20
-692.6567003157065
 30
0.0
 10
230.3490487586571
 20
-695.6240665497197
 30
0.0
 10
230.7878659104156
 20
-698.6567748134764
 30
0.0
 10
230.8917343484745
 20
-700.7000083589671
 30
0.0
 10
230.895062886
 20
-701.722092687432
 30
0.0
  0
SPLINE
  5
254
330
1F
100
AcDbEntity
  8
Linee visibili 2D - Tangent
100
AcDbSpline
210
0.0
220
0.0
230
1.0
 70
    24
 71
     2
 72
     6
 73
     3
 74
     0
 42
0.0000000001
 43
0.0000000001
 40
-4.733693459110781
 40
-4.733693459110781
 40
-4.733693459110781
 40
0.0
 40
0.0
 40
0.0
 10
230.895062886
 20
-701.722092687432
 30
0.0
 10
233.2619096155554
 20
-701.722092687432
 30
0.0
 10
235.6287563451108
 20
-701.722092687432
 30
0.0
  0
SPLINE
  5
255
330
1F
100
AcDbEntity
  8
Linee visibili 2D - Tangent
100
AcDbSpline
210
0.0
220
0.0
230
1.0
 70
    24
 71
     2
 72
     6
 73
     3
 74
     0
 42
0.0000000001
 43
0.0000000001
 40
0.0
 40
0.0
 40
0.0
 40
249.9999999999957
 40
249.9999999999957
 40
249.9999999999957
 10
235.6287563451108
 20
-701.722092687432
 30
0.0
 10
235.6287563451108
 20
-826.7220926874298
 30
0.0
 10
235.6287563451108
 20
-951.7220926874276
 30
0.0
  0
SPLINE
  5
256
330
1F
100
AcDbEntity
  8
Linee visibili 2D - Tangent
100
AcDbSpline
210
0.0
220
0.0
230
1.0
 70
    12
 71
     2
 72
     6
 73
     3
 74
     0
 42
0.0000000001
 43
0.0000000001
 40
0.0
 40
0.0
 40
0.0
 40
55.96551959515868
 40
55.96551959515868
 40
55.96551959515868
 10
235.6287563451108
 20
-951.7220926874276
 30
0.0
 41
1.0
 10
235.6287563449965
 20
-987.3508490325033
 30
0.0
 41
0.7071067811872981
 10
199.9999999999204
 20
-987.3508490324645
 30
0.0
 41
1.0
  0
SPLINE
  5
257
330
1F
100
AcDbEntity
  8
Linee visibili 2D - Tangent
100
AcDbSpline
210
0.0
220
0.0
230
1.0
 70
    24
 71
     2
 72
     6
 73
     3
 74
     0
 42
0.0000000001
 43
0.0000000001
 40
-159.9999999999961
 40
-159.9999999999961
 40
-159.9999999999961
 40
0.0
 40
0.0
 40
0.0
 10
199.9999999999204
 20
-987.3508490324645
 30
0.0
 10
119.9999999999224
 20
-987.3508490324645
 30
0.0
 10
39.99999999992429
 20
-987.3508490324645
 30
0.0
  0
SPLINE
  5
258
330
1F
100
AcDbEntity
  8
Linee visibili 2D - Tangent
100
AcDbSpline
210
0.0
220
0.0
230
1.0
 70
    24
 71
     2
 72
     6
 73
     3
 74
     0
 42
0.0000000001
 43
0.0000000001
 40
-29.5442325901264
 40
-29.5442325901264
 40
-29.5442325901264
 40
0.0
 40
0.0
 40
0.0
 10
39.99999999992429
 20
-987.3508490324645
 30
0.0
 10
40.00000000004161
 20
-1002.122965327528
 30
0.0
 10
40.00000000015893
 20
-1016.895081622591
 30
0.0
  0
SPLINE
  5
259
330
1F
100
AcDbEntity
  8
Linee visibili 2D - Tangent
100
AcDbSpline
210
0.0
220
0.0
230
1.0
 70
    24
 71
     2
 72
     6
 73
     3
 74
     0
 42
0.0000000001
 43
0.0000000001
 40
0.0
 40
0.0
 40
0.0
 40
160.0000000000009
 40
160.0000000000009
 40
160.0000000000009
 10
40.00000000015893
 20
-1016.895081622591
 30
0.0
 10
120.0000000001594
 20
-1016.895081622591
 30
0.0
 10
200.0000000001598
 20
-1016.895081622591
 30
0.0
  0
SPLINE
  5
25A
330
1F
100
AcDbEntity
  8
Linee visibili 2D - Tangent
100
AcDbSpline
210
0.0
220
0.0
230
1.0
 70
    24
 71
     2
 72
     6
 73
     3
 74
     0
 42
0.0000000001
 43
0.0000000001
 40
-29.54423259012674
 40
-29.54423259012674
 40
-29.54423259012674
 40
0.0
 40
0.0
 40
0.0
 10
200.0000000001598
 20
-1016.895081622591
 30
0.0
 10
200.0000000000401
 20
-1002.122965327528
 30
0.0
 10
199.9999999999204
 20
-987.3508490324645
 30
0.0
  0
SPLINE
  5
25B
330
1F
100
AcDbEntity
  8
Linee visibili 2D - Tangent
100
AcDbSpline
210
0.0
220
0.0
230
1.0
 70
    24
 71
     2
 72
     6
 73
     3
 74
     0
 42
0.0000000001
 43
0.0000000001
 40
0.0
 40
0.0
 40
0.0
 40
4.529223150141206
 40
4.529223150141206
 40
4.529223150141206
 10
199.9999999999204
 20
-987.3508490324645
 30
0.0
 10
199.9999999999326
 20
-985.0862374573939
 30
0.0
 10
199.999999999945
 20
-982.8216258823232
 30
0.0
  0
SPLINE
  5
25C
330
1F
100
AcDbEntity
  8
Linee visibili 2D - Tangent
100
AcDbSpline
210
0.0
220
0.0
230
1.0
 70
     8
 71
     3
 72
    21
 73
    17
 74
     0
 42
0.0000000001
 43
0.0000000001
 40
0.0
 40
0.0
 40
0.0
 40
0.0
 40
3.06427002046662
 40
6.125838901896563
 40
12.22221960418702
 40
18.32375076571345
 40
21.36719128464048
 40
24.40061099519749
 40
27.45470886309699
 40
30.50976037897113
 40
33.54313686845994
 40
36.58258489972804
 40
39.63966547117122
 40
42.68667135063419
 40
45.7198801197915
 40
48.77458162983772
 40
48.77458162983772
 40
48.77458162983772
 40
48.77458162983772
 10
199.999999999945
 20
-982.8216258823232
 30
0.0
 10
201.0214029179476
 20
-982.8195166317504
 30
0.0
 10
203.0632854961361
 20
-982.717733164889
 30
0.0
 10
207.097400347812
 20
-982.11358604084
 30
0.0
 10
211.9853966701171
 20
-980.619645986693
 30
0.0
 10
216.4812641187489
 20
-978.2009939285588
 30
0.0
 10
219.7396709890738
 20
-975.7717915581453
 30
0.0
 10
221.9922660757086
 20
-973.7193230816972
 30
0.0
 10
224.034685743439
 20
-971.4526171891447
 30
0.0
 10
225.846773790824
 20
-968.9977846905568
 30
0.0
 10
227.4058966022192
 20
-966.3806720984814
 30
0.0
 10
228.7014558619367
 20
-963.6228476580541
 30
0.0
 10
229.7206403541104
 20
-960.7465159492624
 30
0.0
 10
230.4533784817675
 20
-957.7864236470654
 30
0.0
 10
230.8920438098057
 20
-954.7695407025431
 30
0.0
 10
230.9902622460343
 20
-952.7403272887687
 30
0.0
 10
230.9919642159332
 20
-951.7220926874315
 30
0.0
  0
SPLINE
  5
25D
330
1F
100
AcDbEntity
  8
Linee visibili 2D - Tangent
100
AcDbSpline
210
0.0
220
0.0
230
1.0
 70
    24
 71
     2
 72
     6
 73
     3
 74
     0
 42
0.0000000001
 43
0.0000000001
 40
0.0
 40
0.0
 40
0.0
 40
4.636792129177592
 40
4.636792129177592
 40
4.636792129177592
 10
230.9919642159332
 20
-951.7220926874315
 30
0.0
 10
233.310360280522
 20
-951.7220926874296
 30
0.0
 10
235.6287563451108
 20
-951.7220926874276
 30
0.0
  0
SPLINE
  5
25E
330
1F
100
AcDbEntity
  8
Linee visibili 2D - Tangent
100
AcDbSpline
210
0.0
220
0.0
230
1.0
 70
    24
 71
     2
 72
     6
 73
     3
 74
     0
 42
0.0000000001
 43
0.0000000001
 40
0.0
 40
0.0
 40
0.0
 40
29.54423259017699
 40
29.54423259017699
 40
29.54423259017699
 10
235.6287563451108
 20
-951.7220926874276
 30
0.0
 10
250.4008726401993
 20
-951.7220926874296
 30
0.0
 10
265.1729889352878
 20
-951.7220926874312
 30
0.0
  0
SPLINE
  5
25F
330
1F
100
AcDbEntity
  8
Linee visibili 2D
100
AcDbSpline
210
0.0
220
0.0
230
1.0
 70
     8
 71
     3
 72
    16
 73
    12
 74
     0
 42
0.0000000001
 43
0.0000000001
 40
0.0
 40
0.0
 40
0.0
 40
0.0
 40
1.08034118072606
 40
5.247258371171903
 40
7.803958643165793
 40
10.8749514116665
 40
18.04405194100619
 40
22.5238422668869
 40
236.0250730863835
 40
238.5850191405035
 40
249.9772445332448
 40
249.9772445332448
 40
249.9772445332448
 40
249.9772445332448
 10
9.180875959979175
 20
-701.7370556070763
 30
0.0
 10
9.179845594736207
 20
-702.097167737865
 30
0.0
 10
9.174559146615136
 20
-703.8462463879072
 30
0.0
 10
9.168402503375546
 20
-706.447557858468
 30
0.0
 10
9.1608924985469
 20
-709.7124205546882
 30
0.0
 10
9.154639120074989
 20
-713.9780124337858
 30
0.0
 10
9.146903104341843
 20
-718.884636499987
 30
0.0
 10
9.122862613190363
 20
-793.9346731793228
 30
0.0
 10
9.098989233865948
 20
-867.4483250777539
 30
0.0
 10
9.073962895191472
 20
-943.2661216701607
 30
0.0
 10
9.078899208199116
 20
-947.9168459462536
 30
0.0
 10
9.083980773481243
 20
-951.7142798106403
 30
0.0
  0
SPLINE
  5
260
330
1F
100
AcDbEntity
  8
Linee visibili 2D
100
AcDbSpline
210
0.0
220
0.0
230
1.0
 70
    12
 71
     2
 72
     6
 73
     3
 74
     0
 42
0.0000000001
 43
0.0000000001
 40
-0.1240648402046664
 40
-0.1240648402046664
 40
-0.1240648402046664
 40
0.0
 40
0.0
 40
0.0
 10
9.08398077348127
 20
-951.7142798106403
 30
0.0
 41
0.9395458667436059
 10
9.085243223753664
 20
-951.7181704382991
 30
0.0
 41
0.9654916619224877
 10
9.008035783999956
 20
-951.7220926874319
 30
0.0
 41
1.0
  0
SPLINE
  5
261
330
1F
100
AcDbEntity
  8
Linee visibili 2D
100
AcDbSpline
210
0.0
220
0.0
230
1.0
 70
     8
 71
     3
 72
    21
 73
    17
 74
     0
 42
0.0000000001
 43
0.0000000001
 40
0.0
 40
0.0
 40
0.0
 40
0.0
 40
3.054701510046104
 40
6.087910279203121
 40
9.134916158665383
 40
12.19199673010767
 40
15.23144476137459
 40
18.2648212508618
 40
21.31987276673411
 40
24.37397063463161
 40
27.40739034518634
 40
30.45083086411095
 40
36.55236202563239
 40
42.64874272791804
 40
45.71031160934551
 40
48.77458162980964
 40
48.77458162980964
 40
48.77458162980964
 40
48.77458162980964
 10
9.008035783999956
 20
-951.7220926874319
 30
0.0
 10
9.009748130710024
 20
-952.7403244249599
 30
0.0
 10
9.107934002235651
 20
-954.7695468259933
 30
0.0
 10
9.546644605350365
 20
-957.7864107032203
 30
0.0
 10
10.27934821081976
 20
-960.7465309579911
 30
0.0
 10
11.29858318191623
 20
-963.6228098559017
 30
0.0
 10
12.59408264464855
 20
-966.3807156183805
 30
0.0
 10
14.15323347170033
 20
-968.9977671972316
 30
0.0
 10
15.96534383854737
 20
-971.4525800395275
 30
0.0
 10
18.00765713799638
 20
-973.7194152849326
 30
0.0
 10
20.26042289412203
 20
-975.7716425188704
 30
0.0
 10
23.51866419096086
 20
-978.2011401325636
 30
0.0
 10
28.01465133388479
 20
-980.6195257538091
 30
0.0
 10
32.90257186135113
 20
-982.113661652276
 30
0.0
 10
36.93671739393153
 20
-982.7177261762212
 30
0.0
 10
38.9785955674397
 20
-982.8195202939381
 30
0.0
 10
39.99999999994566
 20
-982.8216258823232
 30
0.0
  0
SPLINE
  5
262
330
1F
100
AcDbEntity
  8
Linee visibili 2D
100
AcDbSpline
210
0.0
220
0.0
230
1.0
 70
    24
 71
     2
 72
     6
 73
     3
 74
     0
 42
0.0000000001
 43
0.0000000001
 40
0.0
 40
0.0
 40
0.0
 40
4.529223150141433
 40
4.529223150141433
 40
4.529223150141433
 10
39.99999999994566
 20
-982.8216258823232
 30
0.0
 10
39.99999999993497
 20
-985.0862374573939
 30
0.0
 10
39.99999999992429
 20
-987.3508490324645
 30
0.0
  0
SPLINE
  5
263
330
1F
100
AcDbEntity
  8
Linee visibili 2D
100
AcDbSpline
210
0.0
220
0.0
230
1.0
 70
    12
 71
     2
 72
     6
 73
     3
 74
     0
 42
0.0000000001
 43
0.0000000001
 40
0.0
 40
0.0
 40
0.0
 40
55.96551959491024
 40
55.96551959491024
 40
55.96551959491024
 10
39.99999999992429
 20
-987.3508490324645
 30
0.0
 41
1.0
 10
4.371243655008147
 20
-987.3508490323484
 30
0.0
 41
0.7071067811873368
 10
4.371243655044736
 20
-951.7220926874319
 30
0.0
 41
1.0
  0
SPLINE
  5
264
330
1F
100
AcDbEntity
  8
Linee visibili 2D
100
AcDbSpline
210
0.0
220
0.0
230
1.0
 70
    24
 71
     2
 72
     6
 73
     3
 74
     0
 42
0.0000000001
 43
0.0000000001
 40
0.0
 40
0.0
 40
0.0
 40
249.9999999999964
 40
249.9999999999964
 40
249.9999999999964
 10
4.371243655044736
 20
-951.7220926874319
 30
0.0
 10
4.371243655044622
 20
-826.7220926874339
 30
0.0
 10
4.371243655044508
 20
-701.7220926874356
 30
0.0
  0
SPLINE
  5
265
330
1F
100
AcDbEntity
  8
Linee visibili 2D
100
AcDbSpline
210
0.0
220
0.0
230
1.0
 70
    12
 71
     2
 72
     6
 73
     3
 74
     0
 42
0.0000000001
 43
0.0000000001
 40
0.0
 40
0.0
 40
0.0
 40
55.96551959491048
 40
55.96551959491048
 40
55.96551959491048
 10
4.371243655044508
 20
-701.7220926874356
 30
0.0
 41
1.0
 10
4.371243655003948
 20
-666.0933363425191
 30
0.0
 41
0.7071067811873333
 10
39.99999999992042
 20
-666.0933363423992
 30
0.0
 41
1.0
  0
SPLINE
  5
266
330
1F
100
AcDbEntity
  8
Linee visibili 2D
100
AcDbSpline
210
0.0
220
0.0
230
1.0
 70
    24
 71
     2
 72
     6
 73
     3
 74
     0
 42
0.0000000001
 43
0.0000000001
 40
0.0
 40
0.0
 40
0.0
 40
4.492535994068191
 40
4.492535994068191
 40
4.492535994068191
 10
39.99999999992042
 20
-666.0933363423992
 30
0.0
 10
39.99999999997215
 20
-668.3396043394331
 30
0.0
 10
40.00000000002386
 20
-670.5858723364673
 30
0.0
  0
SPLINE
  5
267
330
1F
100
AcDbEntity
  8
Linee visibili 2D
100
AcDbSpline
210
0.0
220
0.0
230
1.0
 70
    12
 71
     2
 72
     6
 73
     3
 74
     0
 42
0.0000000001
 43
0.0000000001
 40
-2.457200670702667
 40
-2.457200670702667
 40
-2.457200670702667
 40
-2.273555348924501
 40
-2.273555348924501
 40
-2.273555348924501
 10
230.895062886
 20
-701.722092687432
 30
0.0
 41
1.0
 10
230.8198104854595
 20
-701.7295610980032
 30
0.0
 41
0.9680028629583043
 10
230.8191271162883
 20
-701.7369868564177
 30
0.0
 41
0.9440706748919186
  0
SPLINE
  5
268
330
1F
100
AcDbEntity
  8
Linee visibili 2D
100
AcDbSpline
210
0.0
220
0.0
230
1.0
 70
     8
 71
     3
 72
    18
 73
    14
 74
     0
 42
0.0000000001
 43
0.0000000001
 40
-249.9772445332326
 40
-249.9772445332326
 40
-249.9772445332326
 40
-249.9772445332326
 40
-248.5644874955443
 40
-241.6618643521893
 40
-233.4688715431436
 40
-227.4534022663448
 40
-209.9180534281465
 40
-121.855315752111
 40
-13.95217144684296
 40
-12.16016264082318
 40
-6.656701910521197
 40
-3.071289908760264
 40
0.0
 40
0.0
 40
0.0
 40
0.0
 10
230.8191271162882
 20
-701.7369868564177
 30
0.0
 10
230.820427880454
 20
-702.207972553424
 30
0.0
 10
230.8289190967162
 20
-704.9797542234637
 30
0.0
 10
230.8404493562039
 20
-710.4825317963229
 30
0.0
 10
230.8517416021857
 20
-717.5195535264266
 30
0.0
 10
230.8564711237836
 20
-728.1008227754236
 30
0.0
 10
230.8677005050415
 20
-765.3053397267754
 30
0.0
 10
230.8910287777587
 20
-836.4724128058009
 30
0.0
 10
230.9125408149287
 20
-902.3917062541949
 30
0.0
 10
230.9252785910567
 20
-940.7912420729287
 30
0.0
 10
230.9234550585418
 20
-944.4182028905176
 30
0.0
 10
230.9207826525133
 20
-948.47158889911
 30
0.0
 10
230.9174111714601
 20
-950.6904878260268
 30
0.0
 10
230.9160192264792
 20
-951.7142798106219
 30
0.0
  0
SPLINE
  5
269
330
1F
100
AcDbEntity
  8
Linee visibili 2D
100
AcDbSpline
210
0.0
220
0.0
230
1.0
 70
    12
 71
     2
 72
     6
 73
     3
 74
     0
 42
0.0000000001
 43
0.0000000001
 40
0.8759351597986483
 40
0.8759351597986483
 40
0.8759351597986483
 40
1.0
 40
1.0
 40
1.0
 10
230.9160192264792
 20
-951.714279810622
 30
0.0
 41
0.9395458667449924
 10
230.9147567761757
 20
-951.7181704382906
 30
0.0
 41
0.9654916619234096
 10
230.9919642159332
 20
-951.7220926874317
 30
0.0
 41
1.0
  0
SPLINE
  5
26A
330
1F
100
AcDbEntity
  8
Linee visibili 2D
100
AcDbSpline
210
0.0
220
0.0
230
1.0
 70
    12
 71
     2
 72
     6
 73
     3
 74
     0
 42
0.0000000001
 43
0.0000000001
 40
0.0
 40
0.0
 40
0.0
 40
9.765714601364686
 40
9.765714601364686
 40
9.765714601364686
 10
230.9919642159332
 20
-951.7220926874317
 30
0.0
 41
1.0
 10
230.9993161067446
 20
-946.8392402439347
 30
0.0
 41
0.9999997918687116
 10
231.0003673151443
 20
-941.9563823788902
 30
0.0
 41
1.0
  0
SPLINE
  5
26C
330
1F
100
AcDbEntity
  8
Linee visibili 2D - Tangent
100
AcDbSpline
210
0.0
220
0.0
230
1.0
 70
    24
 71
     2
 72
     6
 73
     3
 74
     0
 42
0.0000000001
 43
0.0000000001
 40
-80.0
 40
-80.0
 40
-80.0
 40
0.0
 40
0.0
 40
0.0
 10
79.9999999998845
 20
-460.0063639345473
 30
0.0
 10
119.9999999998845
 20
-460.0063639345473
 30
0.0
 10
159.9999999998845
 20
-460.0063639345473
 30
0.0
  0
SPLINE
  5
26E
330
1F
100
AcDbEntity
  8
Linee visibili 2D - Tangent
100
AcDbSpline
210
0.0
220
0.0
230
1.0
 70
    24
 71
     2
 72
     6
 73
     3
 74
     0
 42
0.0000000001
 43
0.0000000001
 40
0.0
 40
0.0
 40
0.0
 40
67.14285714290531
 40
67.14285714290531
 40
67.14285714290531
 10
160.0000000000603
 20
-432.9011268479667
 30
0.0
 10
193.5714285715129
 20
-432.9011268478147
 30
0.0
 10
227.1428571429656
 20
-432.9011268476627
 30
0.0
  0
SPLINE
  5
26F
330
1F
100
AcDbEntity
  8
Linee visibili 2D - Tangent
100
AcDbSpline
210
0.0
220
0.0
230
1.0
 70
    12
 71
     2
 72
     6
 73
     3
 74
     0
 42
0.0000000001
 43
0.0000000001
 40
0.0
 40
0.0
 40
0.0
 40
5.639426413410282
 40
5.639426413410282
 40
5.639426413410282
 10
227.1428571429656
 20
-432.9011268476627
 30
0.0
 41
1.0
 10
230.0000000001394
 20
-431.5458649934923
 30
0.0
 41
0.8451542547064798
 10
230.0000000000612
 20
-428.3835873333764
 30
0.0
 41
1.0
  0
SPLINE
  5
270
330
1F
100
AcDbEntity
  8
Linee visibili 2D - Tangent
100
AcDbSpline
210
0.0
220
0.0
230
1.0
 70
    24
 71
     2
 72
     6
 73
     3
 74
     0
 42
0.0000000001
 43
0.0000000001
 40
-26.66149464594457
 40
-26.66149464594457
 40
-26.66149464594457
 40
0.0
 40
0.0
 40
0.0
 10
230.0000000000612
 20
-428.3835873333764
 30
0.0
 10
230.0000000000306
 20
-415.0528400104041
 30
0.0
 10
230.0
 20
-401.7220926874318
 30
0.0
  0
SPLINE
  5
271
330
1F
100
AcDbEntity
  8
Linee visibili 2D - Tangent
100
AcDbSpline
210
0.0
220
0.0
230
1.0
 70
    24
 71
     2
 72
     6
 73
     3
 74
     0
 42
0.0000000001
 43
0.0000000001
 40
0.0
 40
0.0
 40
0.0
 40
70.0
 40
70.0
 40
70.0
 10
230.0
 20
-401.7220926874318
 30
0.0
 10
195.0
 20
-401.7220926874318
 30
0.0
 10
160.0
 20
-401.7220926874318
 30
0.0
  0
SPLINE
  5
272
330
1F
100
AcDbEntity
  8
Linee visibili 2D - Tangent
100
AcDbSpline
210
0.0
220
0.0
230
1.0
 70
    24
 71
     2
 72
     6
 73
     3
 74
     0
 42
0.0000000001
 43
0.0000000001
 40
0.0
 40
0.0
 40
0.0
 40
156.3250300212418
 40
156.3250300212418
 40
156.3250300212418
 10
5.0
 20
-558.0471227086737
 30
0.0
 10
5.0
 20
-479.8846076980528
 30
0.0
 10
5.0
 20
-401.7220926874318
 30
0.0
  0
SPLINE
  5
273
330
1F
100
AcDbEntity
  8
Linee visibili 2D - Tangent
100
AcDbSpline
210
0.0
220
0.0
230
1.0
 70
    24
 71
     2
 72
     6
 73
     3
 74
     0
 42
0.0000000001
 43
0.0000000001
 40
0.0
 40
0.0
 40
0.0
 40
5.0
 40
5.0
 40
5.0
 10
5.0
 20
-401.7220926874318
 30
0.0
 10
7.5
 20
-401.7220926874318
 30
0.0
 10
10.0
 20
-401.7220926874318
 30
0.0
  0
SPLINE
  5
274
330
1F
100
AcDbEntity
  8
Linee visibili 2D - Tangent
100
AcDbSpline
210
0.0
220
0.0
230
1.0
 70
    24
 71
     2
 72
     6
 73
     3
 74
     0
 42
0.0000000001
 43
0.0000000001
 40
0.0
 40
0.0
 40
0.0
 40
92.21698504220478
 40
92.21698504220478
 40
92.21698504220478
 10
210.0000000000125
 20
-552.2233489767521
 30
0.0
 10
210.000000000019
 20
-506.1148564556497
 30
0.0
 10
210.0000000000255
 20
-460.0063639345473
 30
0.0
  0
SPLINE
  5
275
330
1F
100
AcDbEntity
  8
Linee visibili 2D - Tangent
100
AcDbSpline
210
0.0
220
0.0
230
1.0
 70
    12
 71
     2
 72
     6
 73
     3
 74
     0
 42
0.0000000001
 43
0.0000000001
 40
-33.83655848138373
 40
-33.83655848138373
 40
-33.83655848138373
 40
0.0
 40
0.0
 40
0.0
 10
210.0000000000255
 20
-460.0063639345473
 30
0.0
 41
1.0
 10
210.0000000003215
 20
-441.0326979946873
 30
0.0
 41
0.8451542548776417
 10
227.1428626112085
 20
-432.9011384455101
 30
0.0
 41
0.9999999997112235
  0
SPLINE
  5
276
330
1F
100
AcDbEntity
  8
Linee visibili 2D - Tangent
100
AcDbSpline
210
0.0
220
0.0
230
1.0
 70
     8
 71
     3
 72
    19
 73
    15
 74
     0
 42
0.0000000001
 43
0.0000000001
 40
-19.18382558063444
 40
-19.18382558063444
 40
-19.18382558063444
 40
-19.18382558063444
 40
-19.16537075844409
 40
-19.12679008459726
 40
-19.06076736274343
 40
-18.93835657447847
 40
-18.60424780929441
 40
-18.1218026585842
 40
-16.54655942140721
 40
-13.66188463043512
 40
-9.284764611880174
 40
-5.803783673248666
 40
-2.648989877900278
 40
0.0
 40
0.0
 40
0.0
 40
0.0
 10
227.1428626112086
 20
-432.9011384455101
 30
0.0
 10
227.1499740138077
 20
-432.8979819448885
 30
0.0
 10
227.1636811601531
 20
-432.9131028534013
 30
0.0
 10
227.1747430354853
 20
-432.9527146965444
 30
0.0
 10
227.1876713140798
 20
-433.0273446043651
 30
0.0
 10
227.2037040374842
 20
-433.2008492582614
 30
0.0
 10
227.2186233005891
 20
-433.5135267560639
 30
0.0
 10
227.236459188345
 20
-434.3106239802811
 30
0.0
 10
227.2462219810138
 20
-435.9580728610501
 30
0.0
 10
227.2482759115892
 20
-438.9037467767514
 30
0.0
 10
227.2441710054409
 20
-442.4846765161411
 30
0.0
 10
227.226910486678
 20
-446.1556073918505
 30
0.0
 10
227.1952575138507
 20
-449.2503845709075
 30
0.0
 10
227.1618693087701
 20
-451.1847037234694
 30
0.0
 10
227.1427857145
 20
-452.0674947496817
 30
0.0
  0
SPLINE
  5
277
330
1F
100
AcDbEntity
  8
Linee visibili 2D - Tangent
100
AcDbSpline
210
0.0
220
0.0
230
1.0
 70
     8
 71
     3
 72
    21
 73
    17
 74
     0
 42
0.0000000001
 43
0.0000000001
 40
0.0
 40
0.0
 40
0.0
 40
0.0
 40
3.739242557662865
 40
7.129849198297277
 40
10.21292011995867
 40
11.65994204290132
 40
12.94475385100104
 40
14.14367454360311
 40
15.21860362975597
 40
16.20092706709369
 40
16.65038559620006
 40
17.08120629774886
 40
17.89717424868312
 40
18.62501532204774
 40
19.28892027951786
 40
19.89242885825418
 40
19.89242885825418
 40
19.89242885825418
 40
19.89242885825418
 10
227.1427857145
 20
-452.0674947496817
 30
0.0
 10
225.9082882099824
 20
-452.2394182655701
 30
0.0
 10
223.5618912452178
 20
-452.6221786596095
 30
0.0
 10
220.2365816339296
 20
-453.3585903620639
 30
0.0
 10
217.7010764068525
 20
-454.1014451025203
 30
0.0
 10
215.8804047219901
 20
-454.7685307037278
 30
0.0
 10
214.6747956580807
 20
-455.2826747260659
 30
0.0
 10
213.6121779907699
 20
-455.8113255344856
 30
0.0
 10
212.6757999176095
 20
-456.3617111130494
 30
0.0
 10
211.9929079978283
 20
-456.8448085297343
 30
0.0
 10
211.5159399736533
 20
-457.2427526470652
 30
0.0
 10
211.1037126825543
 20
-457.6299569601737
 30
0.0
 10
210.6680668117863
 20
-458.1258900231502
 30
0.0
 10
210.2800149793798
 20
-458.7546734725955
 30
0.0
 10
210.0475495320559
 20
-459.3820966349049
 30
0.0
 10
210.0000172017942
 20
-459.8054282723152
 30
0.0
 10
210.0000000000125
 20
-460.0063639344895
 30
0.0
  0
SPLINE
  5
278
330
1F
100
AcDbEntity
  8
Linee visibili 2D - Tangent
100
AcDbSpline
210
0.0
220
0.0
230
1.0
 70
    24
 71
     2
 72
     6
 73
     3
 74
     0
 42
0.0000000001
 43
0.0000000001
 40
0.0
 40
0.0
 40
0.0
 40
50.00000000014074
 40
50.00000000014074
 40
50.00000000014074
 10
210.0000000000125
 20
-460.0063639344895
 30
0.0
 10
184.9999999999485
 20
-460.0063639345185
 30
0.0
 10
159.9999999998845
 20
-460.0063639345473
 30
0.0
  0
SPLINE
  5
27A
330
1F
100
AcDbEntity
  8
Linee visibili 2D
100
AcDbSpline
210
0.0
220
0.0
230
1.0
 70
    12
 71
     2
 72
     8
 73
     5
 74
     0
 42
0.0000000001
 43
0.0000000001
 40
0.0
 40
0.0
 40
0.0
 40
12.56637061435923
 40
12.56637061435923
 40
25.13274122871847
 40
25.13274122871847
 40
25.13274122871847
 10
40.0
 20
-592.7220926874318
 30
0.0
 41
1.0
 10
31.99999999999994
 20
-592.7220926874318
 30
0.0
 41
0.7071067811865451
 10
32.0
 20
-584.7220926874317
 30
0.0
 41
1.0
 10
32.00000000000029
 20
-576.7220926874318
 30
0.0
 41
0.7071067811865602
 10
40.00000000000023
 20
-576.7220926874318
 30
0.0
 41
1.0
  0
SPLINE
  5
27B
330
1F
100
AcDbEntity
  8
Linee visibili 2D
100
AcDbSpline
210
0.0
220
0.0
230
1.0
 70
    12
 71
     2
 72
     8
 73
     5
 74
     0
 42
0.0000000001
 43
0.0000000001
 40
0.0
 40
0.0
 40
0.0
 40
12.56637061435914
 40
12.56637061435914
 40
25.13274122871833
 40
25.13274122871833
 40
25.13274122871833
 10
40.00000000000023
 20
-576.7220926874318
 30
0.0
 41
1.0
 10
48.00000000000029
 20
-576.7220926874317
 30
0.0
 41
0.7071067811865174
 10
48.0
 20
-584.7220926874318
 30
0.0
 41
1.0
 10
47.99999999999996
 20
-592.7220926874317
 30
0.0
 41
0.7071067811865627
 10
40.0
 20
-592.7220926874318
 30
0.0
 41
1.0
  0
SPLINE
  5
281
330
1F
100
AcDbEntity
  8
Linee visibili 2D
100
AcDbSpline
210
0.0
220
0.0
230
1.0
 70
    24
 71
     2
 72
     6
 73
     3
 74
     0
 42
0.0000000001
 43
0.0000000001
 40
-29.54423259007326
 40
-29.54423259007326
 40
-29.54423259007326
 40
0.0
 40
0.0
 40
0.0
 10
40.00000000010596
 20
-636.5491037523258
 30
0.0
 10
40.00000000001318
 20
-651.3212200473625
 30
0.0
 10
39.99999999992042
 20
-666.0933363423992
 30
0.0
  0
SPLINE
  5
282
330
1F
100
AcDbEntity
  8
Linee visibili 2D
100
AcDbSpline
210
0.0
220
0.0
230
1.0
 70
    24
 71
     2
 72
     6
 73
     3
 74
     0
 42
0.0000000001
 43
0.0000000001
 40
0.0
 40
0.0
 40
0.0
 40
159.9999999999964
 40
159.9999999999964
 40
159.9999999999964
 10
39.99999999992042
 20
-666.0933363423992
 30
0.0
 10
119.9999999999186
 20
-666.0933363423992
 30
0.0
 10
199.9999999999168
 20
-666.0933363423991
 30
0.0
  0
SPLINE
  5
283
330
1F
100
AcDbEntity
  8
Linee visibili 2D
100
AcDbSpline
210
0.0
220
0.0
230
1.0
 70
    24
 71
     2
 72
     6
 73
     3
 74
     0
 42
0.0000000001
 43
0.0000000001
 40
-4.492535994068362
 40
-4.492535994068362
 40
-4.492535994068362
 40
0.0
 40
0.0
 40
0.0
 10
199.9999999999168
 20
-666.0933363423991
 30
0.0
 10
199.9999999999711
 20
-668.3396043394331
 30
0.0
 10
200.0000000000255
 20
-670.5858723364673
 30
0.0
  0
SPLINE
  5
284
330
1F
100
AcDbEntity
  8
Linee visibili 2D
100
AcDbSpline
210
0.0
220
0.0
230
1.0
 70
    12
 71
     3
 72
     8
 73
     4
 74
     0
 42
0.0000000001
 43
0.0000000001
 40
3.533002742532021
 40
3.533002742532021
 40
3.533002742532021
 40
3.533002742532021
 40
4.533002742532021
 40
4.533002742532021
 40
4.533002742532021
 40
4.533002742532021
 10
200.0000000000255
 20
-670.5858723364673
 30
0.0
 41
1.0
 10
173.333628828017
 20
-670.5573598124556
 30
0.0
 41
1.0
 10
146.6667466110084
 20
-670.5583225524438
 30
0.0
 41
1.0
 10
120.0
 20
-670.5518348854319
 30
0.0
 41
1.0
  0
SPLINE
  5
285
330
1F
100
AcDbEntity
  8
Linee visibili 2D
100
AcDbSpline
210
0.0
220
0.0
230
1.0
 70
    12
 71
     3
 72
     8
 73
     4
 74
     0
 42
0.0000000001
 43
0.0000000001
 40
1.0
 40
1.0
 40
1.0
 40
1.0
 40
2.0
 40
2.0
 40
2.0
 40
2.0
 10
120.0
 20
-670.5518348854319
 30
0.0
 41
1.0
 10
93.33325338900795
 20
-670.5583225524438
 30
0.0
 41
1.0
 10
66.66637117201593
 20
-670.5573598124555
 30
0.0
 41
1.0
 10
40.00000000002386
 20
-670.5858723364673
 30
0.0
 41
1.0
  0
SPLINE
  5
286
330
1F
100
AcDbEntity
  8
Linee visibili 2D
100
AcDbSpline
210
0.0
220
0.0
230
1.0
 70
    12
 71
     2
 72
     6
 73
     3
 74
     0
 42
0.0000000001
 43
0.0000000001
 40
2.0
 40
2.0
 40
2.0
 40
2.1913158173387
 40
2.1913158173387
 40
2.1913158173387
 10
40.00000000002386
 20
-670.5858723364673
 30
0.0
 41
1.0
 10
40.00260872961328
 20
-670.6594418334498
 30
0.0
 41
0.9669643640404569
 10
40.00513441463929
 20
-670.6618070652166
 30
0.0
 41
0.9417336356634342
  0
SPLINE
  5
287
330
1F
100
AcDbEntity
  8
Linee visibili 2D
100
AcDbSpline
210
0.0
220
0.0
230
1.0
 70
     8
 71
     3
 72
    17
 73
    13
 74
     0
 42
0.0000000001
 43
0.0000000001
 40
0.0
 40
0.0
 40
0.0
 40
0.0
 40
6.079497588106884
 40
12.16356493359315
 40
18.24977200218109
 40
24.31879684139858
 40
30.37142801983445
 40
36.42286150416474
 40
40.14907036099272
 40
42.45427475744015
 40
45.5544081619584
 40
48.65390541732447
 40
48.65390541732447
 40
48.65390541732447
 40
48.65390541732447
 10
40.0051344146393
 20
-670.6618070652166
 30
0.0
 10
37.97831626173638
 20
-670.6628652403272
 30
0.0
 10
33.92393464013412
 20
-671.0647583800112
 30
0.0
 10
28.07677940040435
 20
-672.8475625045837
 30
0.0
 10
22.69575912310415
 20
-675.7408995408631
 30
0.0
 10
17.99533769960954
 20
-679.6270238539221
 30
0.0
 10
14.15474873899439
 20
-684.3498961848073
 30
0.0
 10
11.6811184566036
 20
-689.0398897377393
 30
0.0
 10
10.38733470699776
 20
-692.8620016559813
 30
0.0
 10
9.699408525915259
 20
-695.8291372925084
 30
0.0
 10
9.289780689864301
 20
-698.6375522574125
 30
0.0
 10
9.183569122653805
 20
-700.7035676196458
 30
0.0
 10
9.180873273756786
 20
-701.7368567263188
 30
0.0
  0
SPLINE
  5
288
330
1F
100
AcDbEntity
  8
Linee visibili 2D
100
AcDbSpline
210
0.0
220
0.0
230
1.0
 70
    12
 71
     2
 72
     6
 73
     3
 74
     0
 42
0.0000000001
 43
0.0000000001
 40
-4.716648064310628
 40
-4.716648064310628
 40
-4.716648064310628
 40
-4.533002742532021
 40
-4.533002742532021
 40
-4.533002742532021
 10
9.180873273756782
 20
-701.7368567263188
 30
0.0
 41
0.9442611729278972
 10
9.17988036140743
 20
-701.7295304161453
 30
0.0
 41
0.9681301248215667
 10
9.104937114060248
 20
-701.7220926874302
 30
0.0
 41
1.0
  0
SPLINE
  5
289
330
1F
100
AcDbEntity
  8
Linee visibili 2D
100
AcDbSpline
210
0.0
220
0.0
230
1.0
 70
    24
 71
     2
 72
     6
 73
     3
 74
     0
 42
0.0000000001
 43
0.0000000001
 40
0.0
 40
0.0
 40
0.0
 40
4.733693459015739
 40
4.733693459015739
 40
4.733693459015739
 10
9.104937114060248
 20
-701.7220926874302
 30
0.0
 10
6.738090384552378
 20
-701.7220926874329
 30
0.0
 10
4.371243655044508
 20
-701.7220926874356
 30
0.0
  0
SPLINE
  5
28A
330
1F
100
AcDbEntity
  8
Linee visibili 2D
100
AcDbSpline
210
0.0
220
0.0
230
1.0
 70
    24
 71
     2
 72
     6
 73
     3
 74
     0
 42
0.0000000001
 43
0.0000000001
 40
-29.54423259020382
 40
-29.54423259020382
 40
-29.54423259020382
 40
0.0
 40
0.0
 40
0.0
 10
4.371243655044508
 20
-701.7220926874356
 30
0.0
 10
-10.4008726400574
 20
-701.7220926874338
 30
0.0
 10
-25.17298893515931
 20
-701.722092687432
 30
0.0
  0
SPLINE
  5
28B
330
1F
100
AcDbEntity
  8
Linee visibili 2D
100
AcDbSpline
210
0.0
220
0.0
230
1.0
 70
    24
 71
     2
 72
     6
 73
     3
 74
     0
 42
0.0000000001
 43
0.0000000001
 40
0.0
 40
0.0
 40
0.0
 40
250.0000000000007
 40
250.0000000000007
 40
250.0000000000007
 10
-25.17298893515931
 20
-701.722092687432
 30
0.0
 10
-25.1729889351592
 20
-826.7220926874323
 30
0.0
 10
-25.17298893515908
 20
-951.7220926874326
 30
0.0
  0
SPLINE
  5
28C
330
1F
100
AcDbEntity
  8
Linee visibili 2D
100
AcDbSpline
210
0.0
220
0.0
230
1.0
 70
    24
 71
     2
 72
     6
 73
     3
 74
     0
 42
0.0000000001
 43
0.0000000001
 40
0.0
 40
0.0
 40
0.0
 40
29.54423259020382
 40
29.54423259020382
 40
29.54423259020382
 10
-25.17298893515908
 20
-951.7220926874326
 30
0.0
 10
-10.40087264005717
 20
-951.7220926874324
 30
0.0
 10
4.371243655044736
 20
-951.7220926874319
 30
0.0
  0
SPLINE
  5
28D
330
1F
100
AcDbEntity
  8
Linee visibili 2D
100
AcDbSpline
210
0.0
220
0.0
230
1.0
 70
    24
 71
     2
 72
     6
 73
     3
 74
     0
 42
0.0000000001
 43
0.0000000001
 40
0.0
 40
0.0
 40
0.0
 40
4.636792128955221
 40
4.636792128955221
 40
4.636792128955221
 10
4.371243655044736
 20
-951.7220926874319
 30
0.0
 10
6.689639719522119
 20
-951.7220926874319
 30
0.0
 10
9.008035783999503
 20
-951.7220926874319
 30
0.0
  0
SPLINE
  5
28E
330
1F
100
AcDbEntity
  8
Linee visibili 2D
100
AcDbSpline
210
0.0
220
0.0
230
1.0
 70
    12
 71
     2
 72
     6
 73
     3
 74
     0
 42
0.0000000001
 43
0.0000000001
 40
-9.765714601364797
 40
-9.765714601364797
 40
-9.765714601364797
 40
0.0
 40
0.0
 40
0.0
 10
9.008035783999503
 20
-951.7220926874319
 30
0.0
 41
1.0
 10
9.000683893191462
 20
-946.8392402439347
 30
0.0
 41
0.9999997918687116
 10
8.999632684793368
 20
-941.9563823788902
 30
0.0
 41
1.0
  0
SPLINE
  5
28F
330
1F
100
AcDbEntity
  8
Linee visibili 2D
100
AcDbSpline
210
0.0
220
0.0
230
1.0
 70
    12
 71
     3
 72
     8
 73
     4
 74
     0
 42
0.0000000001
 43
0.0000000001
 40
1.583948905240311
 40
1.583948905240311
 40
1.583948905240311
 40
1.583948905240311
 40
2.0
 40
2.0
 40
2.0
 40
2.0
 10
12.75279792168226
 20
-440.3462468899678
 30
0.0
 41
1.0
 10
12.75395224099202
 20
-443.700014213223
 30
0.0
 41
1.0
 10
12.76512917458399
 20
-447.817550339044
 30
0.0
 41
1.0
 10
12.85718559591714
 20
-452.0675427509868
 30
0.0
 41
1.0
  0
SPLINE
  5
290
330
1F
100
AcDbEntity
  8
Linee visibili 2D
100
AcDbSpline
210
0.0
220
0.0
230
1.0
 70
    24
 71
     2
 72
     6
 73
     3
 74
     0
 42
0.0000000001
 43
0.0000000001
 40
0.0
 40
0.0
 40
0.0
 40
103.4086822818222
 40
103.4086822818222
 40
103.4086822818222
 10
12.85718559591714
 20
-452.0675427509868
 30
0.0
 10
12.85718020163745
 20
-503.7718838918976
 30
0.0
 10
12.85717480735775
 20
-555.4762250328084
 30
0.0
  0
ENDSEC
  0
SECTION
  2
OBJECTS
  0
DICTIONARY
  5
C
330
0
100
AcDbDictionary
281
     1
  3
ACAD_COLOR
350
2B1
  3
ACAD_GROUP
350
D
  3
ACAD_LAYOUT
350
1A
  3
ACAD_MATERIAL
350
295
  3
ACAD_MLEADERSTYLE
350
292
  3
ACAD_MLINESTYLE
350
17
  3
ACAD_PLOTSETTINGS
350
19
  3
ACAD_PLOTSTYLENAME
350
E
  3
ACAD_SCALELIST
350
2B3
  3
ACAD_TABLESTYLE
350
291
  3
ACAD_VISUALSTYLE
350
2A
  3
ACDB_RECOMPOSE_DATA
350
2E2
  3
AcDbVariableDictionary
350
2D8
  0
DICTIONARY
  5
2B1
102
{ACAD_REACTORS
330
C
102
}
330
C
100
AcDbDictionary
281
     1
  0
DICTIONARY
  5
D
102
{ACAD_REACTORS
330
C
102
}
330
C
100
AcDbDictionary
281
     1
  0
DICTIONARY
  5
1A
102
{ACAD_REACTORS
330
C
102
}
330
C
100
AcDbDictionary
281
     1
  3
Layout1
350
1E
  3
Layout2
350
26
  3
Model
350
22
  0
DICTIONARY
  5
295
102
{ACAD_REACTORS
330
C
102
}
330
C
100
AcDbDictionary
281
     1
  3
ByBlock
350
29E
  3
ByLayer
350
296
  3
Global
350
2A6
  0
DICTIONARY
  5
292
102
{ACAD_REACTORS
330
C
102
}
330
C
100
AcDbDictionary
281
     1
  3
Standard
350
2D5
  0
DICTIONARY
  5
17
102
{ACAD_REACTORS
330
C
102
}
330
C
100
AcDbDictionary
281
     1
  3
Standard
350
18
  0
DICTIONARY
  5
19
102
{ACAD_REACTORS
330
C
102
}
330
C
100
AcDbDictionary
281
     1
  0
ACDBDICTIONARYWDFLT
  5
E
102
{ACAD_REACTORS
330
C
102
}
330
C
100
AcDbDictionary
281
     1
  3
Normal
350
F
100
AcDbDictionaryWithDefault
340
F
  0
DICTIONARY
  5
2B3
102
{ACAD_REACTORS
330
C
102
}
330
C
100
AcDbDictionary
281
     1
  3
A0
350
2B4
  3
A1
350
2B5
  3
A2
350
2B6
  3
A3
350
2B7
  3
A4
350
2B8
  3
A5
350
2B9
  3
A6
350
2BA
  3
A7
350
2BB
  3
A8
350
2BC
  3
A9
350
2BD
  3
B0
350
2BE
  3
B1
350
2BF
  3
B2
350
2C0
  3
B3
350
2C1
  3
B4
350
2C2
  3
B5
350
2C3
  3
B6
350
2C4
  3
B7
350
2C5
  3
B8
350
2C6
  3
B9
350
2C7
  3
C0
350
2C8
  3
C1
350
2C9
  3
C2
350
2CA
  3
C3
350
2CB
  3
C4
350
2CC
  3
C5
350
2CD
  3
C6
350
2CE
  3
C7
350
2CF
  3
C8
350
2D0
  3
C9
350
2D1
  3
D0
350
2D2
  3
D1
350
2D3
  3
D2
350
2D4
  0
DICTIONARY
  5
291
102
{ACAD_REACTORS
330
C
102
}
330
C
100
AcDbDictionary
281
     1
  3
Standard
350
2B2
  0
DICTIONARY
  5
2A
102
{ACAD_REACTORS
330
C
102
}
330
C
100
AcDbDictionary
281
     1
  3
2dWireframe
350
2F
  3
3D Hidden
350
31
  3
3dWireframe
350
30
  3
Basic
350
32
  3
Brighten
350
36
  3
ColorChange
350
3A
  3
Conceptual
350
34
  3
Dim
350
35
  3
EdgeColorOff
350
2B0
  3
Facepattern
350
39
  3
Flat
350
2B
  3
FlatWithEdges
350
2C
  3
Gouraud
350
2D
  3
GouraudWithEdges
350
2E
  3
JitterOff
350
2AE
  3
Linepattern
350
38
  3
OverhangOff
350
2AF
  3
Realistic
350
33
  3
Thicken
350
37
  0
XRECORD
  5
2E2
102
{ACAD_REACTORS
330
C
102
}
330
C
100
AcDbXrecord
280
     1
 90
        1
330
2B2
  0
DICTIONARY
  5
2D8
102
{ACAD_REACTORS
330
C
102
}
330
C
100
AcDbDictionary
281
     1
  3
CANNOSCALE
350
2DC
  3
CMLEADERSTYLE
350
2DA
  3
CTABLESTYLE
350
2D9
  3
LAYEREVAL
350
2DE
  3
LAYERNOTIFY
350
2DF
  3
LIGHTINGUNITS
350
2DD
  3
MSLTSCALE
350
2DB
  0
LAYOUT
  5
1E
102
{ACAD_REACTORS
330
1A
102
}
330
1A
100
AcDbPlotSettings
  1

  2
none_device
  4

  6

 40
0.0
 41
0.0
 42
0.0
 43
0.0
 44
0.0
 45
0.0
 46
0.0
 47
0.0
 48
0.0
 49
0.0
140
0.0
141
0.0
142
1.0
143
1.0
 70
   688
 72
     0
 73
     0
 74
     5
  7

 75
    16
147
1.0
 76
     0
 77
     2
 78
   300
148
0.0
149
0.0
100
AcDbLayout
  1
Layout1
 70
     1
 71
     1
 10
0.0
 20
0.0
 11
12.0
 21
9.0
 12
0.0
 22
0.0
 32
0.0
 14
1.000000000000000E+20
 24
1.000000000000000E+20
 34
1.000000000000000E+20
 15
-1.000000000000000E+20
 25
-1.000000000000000E+20
 35
-1.000000000000000E+20
146
0.0
 13
0.0
 23
0.0
 33
0.0
 16
1.0
 26
0.0
 36
0.0
 17
0.0
 27
1.0
 37
0.0
 76
     0
330
1B
  0
LAYOUT
  5
26
102
{ACAD_REACTORS
330
1A
102
}
330
1A
100
AcDbPlotSettings
  1

  2
none_device
  4

  6

 40
0.0
 41
0.0
 42
0.0
 43
0.0
 44
0.0
 45
0.0
 46
0.0
 47
0.0
 48
0.0
 49
0.0
140
0.0
141
0.0
142
1.0
143
1.0
 70
   688
 72
     0
 73
     0
 74
     5
  7

 75
    16
147
1.0
 76
     0
 77
     2
 78
   300
148
0.0
149
0.0
100
AcDbLayout
  1
Layout2
 70
     1
 71
     2
 10
0.0
 20
0.0
 11
0.0
 21
0.0
 12
0.0
 22
0.0
 32
0.0
 14
0.0
 24
0.0
 34
0.0
 15
0.0
 25
0.0
 35
0.0
146
0.0
 13
0.0
 23
0.0
 33
0.0
 16
1.0
 26
0.0
 36
0.0
 17
0.0
 27
1.0
 37
0.0
 76
     0
330
23
  0
LAYOUT
  5
22
102
{ACAD_REACTORS
330
1A
102
}
330
1A
100
AcDbPlotSettings
  1

  2
none_device
  4

  6

 40
0.0
 41
0.0
 42
0.0
 43
0.0
 44
0.0
 45
0.0
 46
0.0
 47
0.0
 48
0.0
 49
0.0
140
0.0
141
0.0
142
1.0
143
1.0
 70
  1712
 72
     0
 73
     0
 74
     0
  7

 75
     0
147
1.0
 76
     0
 77
     2
 78
   300
148
0.0
149
0.0
100
AcDbLayout
  1
Model
 70
     1
 71
     0
 10
0.0
 20
0.0
 11
12.0
 21
9.0
 12
0.0
 22
0.0
 32
0.0
 14
-1111.722092687432
 24
-1051.722092687432
 34
0.0
 15
300.0
 25
420.0000000000001
 35
0.0
146
0.0
 13
0.0
 23
0.0
 33
0.0
 16
1.0
 26
0.0
 36
0.0
 17
0.0
 27
1.0
 37
0.0
 76
     0
330
1F
331
29
  0
MATERIAL
  5
29E
102
{ACAD_XDICTIONARY
360
29F
102
}
102
{ACAD_REACTORS
330
295
102
}
330
295
100
AcDbMaterial
  1
ByBlock
 72
     0
 43
0.0008202099737533
 43
0.0
 43
0.0
 43
0.0
 43
0.0
 43
0.0008202099737533
 43
0.0
 43
0.0
 43
0.0
 43
0.0
 43
1.0
 43
0.0
 43
0.0
 43
0.0
 43
0.0
 43
1.0
 77
     0
 47
0.0008202099737533
 47
0.0
 47
0.0
 47
0.0
 47
0.0
 47
0.0008202099737533
 47
0.0
 47
0.0
 47
0.0
 47
0.0
 47
1.0
 47
0.0
 47
0.0
 47
0.0
 47
0.0
 47
1.0
171
     0
 49
0.0008202099737533
 49
0.0
 49
0.0
 49
0.0
 49
0.0
 49
0.0008202099737533
 49
0.0
 49
0.0
 49
0.0
 49
0.0
 49
1.0
 49
0.0
 49
0.0
 49
0.0
 49
0.0
 49
1.0
175
     0
142
0.0008202099737533
142
0.0
142
0.0
142
0.0
142
0.0
142
0.0008202099737533
142
0.0
142
0.0
142
0.0
142
0.0
142
1.0
142
0.0
142
0.0
142
0.0
142
0.0
142
1.0
179
     0
144
0.0008202099737533
144
0.0
144
0.0
144
0.0
144
0.0
144
0.0008202099737533
144
0.0
144
0.0
144
0.0
144
0.0
144
1.0
144
0.0
144
0.0
144
0.0
144
0.0
144
1.0
147
0.0008202099737533
147
0.0
147
0.0
147
0.0
147
0.0
147
0.0008202099737533
147
0.0
147
0.0
147
0.0
147
0.0
147
1.0
147
0.0
147
0.0
147
0.0
147
0.0
147
1.0
  0
MATERIAL
  5
296
102
{ACAD_XDICTIONARY
360
297
102
}
102
{ACAD_REACTORS
330
295
102
}
330
295
100
AcDbMaterial
  1
ByLayer
 72
     0
 43
0.0008202099737533
 43
0.0
 43
0.0
 43
0.0
 43
0.0
 43
0.0008202099737533
 43
0.0
 43
0.0
 43
0.0
 43
0.0
 43
1.0
 43
0.0
 43
0.0
 43
0.0
 43
0.0
 43
1.0
 77
     0
 47
0.0008202099737533
 47
0.0
 47
0.0
 47
0.0
 47
0.0
 47
0.0008202099737533
 47
0.0
 47
0.0
 47
0.0
 47
0.0
 47
1.0
 47
0.0
 47
0.0
 47
0.0
 47
0.0
 47
1.0
171
     0
 49
0.0008202099737533
 49
0.0
 49
0.0
 49
0.0
 49
0.0
 49
0.0008202099737533
 49
0.0
 49
0.0
 49
0.0
 49
0.0
 49
1.0
 49
0.0
 49
0.0
 49
0.0
 49
0.0
 49
1.0
175
     0
142
0.0008202099737533
142
0.0
142
0.0
142
0.0
142
0.0
142
0.0008202099737533
142
0.0
142
0.0
142
0.0
142
0.0
142
1.0
142
0.0
142
0.0
142
0.0
142
0.0
142
1.0
179
     0
144
0.0008202099737533
144
0.0
144
0.0
144
0.0
144
0.0
144
0.0008202099737533
144
0.0
144
0.0
144
0.0
144
0.0
144
1.0
144
0.0
144
0.0
144
0.0
144
0.0
144
1.0
147
0.0008202099737533
147
0.0
147
0.0
147
0.0
147
0.0
147
0.0008202099737533
147
0.0
147
0.0
147
0.0
147
0.0
147
1.0
147
0.0
147
0.0
147
0.0
147
0.0
147
1.0
  0
MATERIAL
  5
2A6
102
{ACAD_XDICTIONARY
360
2A7
102
}
102
{ACAD_REACTORS
330
295
102
}
330
295
100
AcDbMaterial
  1
Global
 72
     0
 43
0.0008202099737533
 43
0.0
 43
0.0
 43
0.0
 43
0.0
 43
0.0008202099737533
 43
0.0
 43
0.0
 43
0.0
 43
0.0
 43
1.0
 43
0.0
 43
0.0
 43
0.0
 43
0.0
 43
1.0
 77
     0
 47
0.0008202099737533
 47
0.0
 47
0.0
 47
0.0
 47
0.0
 47
0.0008202099737533
 47
0.0
 47
0.0
 47
0.0
 47
0.0
 47
1.0
 47
0.0
 47
0.0
 47
0.0
 47
0.0
 47
1.0
171
     0
 49
0.0008202099737533
 49
0.0
 49
0.0
 49
0.0
 49
0.0
 49
0.0008202099737533
 49
0.0
 49
0.0
 49
0.0
 49
0.0
 49
1.0
 49
0.0
 49
0.0
 49
0.0
 49
0.0
 49
1.0
175
     0
142
0.0008202099737533
142
0.0
142
0.0
142
0.0
142
0.0
142
0.0008202099737533
142
0.0
142
0.0
142
0.0
142
0.0
142
1.0
142
0.0
142
0.0
142
0.0
142
0.0
142
1.0
179
     0
144
0.0008202099737533
144
0.0
144
0.0
144
0.0
144
0.0
144
0.0008202099737533
144
0.0
144
0.0
144
0.0
144
0.0
144
1.0
144
0.0
144
0.0
144
0.0
144
0.0
144
1.0
147
0.0008202099737533
147
0.0
147
0.0
147
0.0
147
0.0
147
0.0008202099737533
147
0.0
147
0.0
147
0.0
147
0.0
147
1.0
147
0.0
147
0.0
147
0.0
147
0.0
147
1.0
  0
MLEADERSTYLE
  5
2D5
102
{ACAD_REACTORS
330
292
102
}
330
292
100
AcDbMLeaderStyle
170
     2
171
     1
172
     0
 90
        2
 40
0.0
 41
0.0
173
     1
 91
-1056964608
340
14
 92
       -2
290
     1
 42
0.09
291
     1
 43
0.36
  3
Standard
 44
0.18
300

342
11
174
     1
178
     6
175
     1
176
     0
 93
-1056964608
 45
0.18
292
     0
297
     0
 46
0.18
 94
-1056964608
 47
1.0
 49
1.0
140
1.0
293
     1
141
0.0
294
     1
177
     0
142
1.0
295
     0
296
     0
143
0.125
1001
ACAD_MLEADERVER
1070
     2
  0
MLINESTYLE
  5
18
102
{ACAD_REACTORS
330
17
102
}
330
17
100
AcDbMlineStyle
  2
STANDARD
 70
     0
  3

 62
   256
 51
90.0
 52
90.0
 71
     2
 49
0.5
 62
   256
  6
BYLAYER
 49
-0.5
 62
   256
  6
BYLAYER
  0
ACDBPLACEHOLDER
  5
F
102
{ACAD_REACTORS
330
E
102
}
330
E
  0
SCALE
  5
2B4
102
{ACAD_REACTORS
330
2B3
102
}
330
2B3
100
AcDbScale
 70
     0
300
1:1
140
1.0
141
1.0
290
     1
  0
SCALE
  5
2B5
102
{ACAD_REACTORS
330
2B3
102
}
330
2B3
100
AcDbScale
 70
     0
300
1:2
140
1.0
141
2.0
290
     0
  0
SCALE
  5
2B6
102
{ACAD_REACTORS
330
2B3
102
}
330
2B3
100
AcDbScale
 70
     0
300
1:4
140
1.0
141
4.0
290
     0
  0
SCALE
  5
2B7
102
{ACAD_REACTORS
330
2B3
102
}
330
2B3
100
AcDbScale
 70
     0
300
1:5
140
1.0
141
5.0
290
     0
  0
SCALE
  5
2B8
102
{ACAD_REACTORS
330
2B3
102
}
330
2B3
100
AcDbScale
 70
     0
300
1:8
140
1.0
141
8.0
290
     0
  0
SCALE
  5
2B9
102
{ACAD_REACTORS
330
2B3
102
}
330
2B3
100
AcDbScale
 70
     0
300
1:10
140
1.0
141
10.0
290
     0
  0
SCALE
  5
2BA
102
{ACAD_REACTORS
330
2B3
102
}
330
2B3
100
AcDbScale
 70
     0
300
1:16
140
1.0
141
16.0
290
     0
  0
SCALE
  5
2BB
102
{ACAD_REACTORS
330
2B3
102
}
330
2B3
100
AcDbScale
 70
     0
300
1:20
140
1.0
141
20.0
290
     0
  0
SCALE
  5
2BC
102
{ACAD_REACTORS
330
2B3
102
}
330
2B3
100
AcDbScale
 70
     0
300
1:30
140
1.0
141
30.0
290
     0
  0
SCALE
  5
2BD
102
{ACAD_REACTORS
330
2B3
102
}
330
2B3
100
AcDbScale
 70
     0
300
1:40
140
1.0
141
40.0
290
     0
  0
SCALE
  5
2BE
102
{ACAD_REACTORS
330
2B3
102
}
330
2B3
100
AcDbScale
 70
     0
300
1:50
140
1.0
141
50.0
290
     0
  0
SCALE
  5
2BF
102
{ACAD_REACTORS
330
2B3
102
}
330
2B3
100
AcDbScale
 70
     0
300
1:100
140
1.0
141
100.0
290
     0
  0
SCALE
  5
2C0
102
{ACAD_REACTORS
330
2B3
102
}
330
2B3
100
AcDbScale
 70
     0
300
2:1
140
2.0
141
1.0
290
     0
  0
SCALE
  5
2C1
102
{ACAD_REACTORS
330
2B3
102
}
330
2B3
100
AcDbScale
 70
     0
300
4:1
140
4.0
141
1.0
290
     0
  0
SCALE
  5
2C2
102
{ACAD_REACTORS
330
2B3
102
}
330
2B3
100
AcDbScale
 70
     0
300
8:1
140
8.0
141
1.0
290
     0
  0
SCALE
  5
2C3
102
{ACAD_REACTORS
330
2B3
102
}
330
2B3
100
AcDbScale
 70
     0
300
10:1
140
10.0
141
1.0
290
     0
  0
SCALE
  5
2C4
102
{ACAD_REACTORS
330
2B3
102
}
330
2B3
100
AcDbScale
 70
     0
300
100:1
140
100.0
141
1.0
290
     0
  0
SCALE
  5
2C5
102
{ACAD_REACTORS
330
2B3
102
}
330
2B3
100
AcDbScale
 70
     0
300
1/128" = 1'-0"
140
0.0078125
141
12.0
290
     0
  0
SCALE
  5
2C6
102
{ACAD_REACTORS
330
2B3
102
}
330
2B3
100
AcDbScale
 70
     0
300
1/64" = 1'-0"
140
0.015625
141
12.0
290
     0
  0
SCALE
  5
2C7
102
{ACAD_REACTORS
330
2B3
102
}
330
2B3
100
AcDbScale
 70
     0
300
1/32" = 1'-0"
140
0.03125
141
12.0
290
     0
  0
SCALE
  5
2C8
102
{ACAD_REACTORS
330
2B3
102
}
330
2B3
100
AcDbScale
 70
     0
300
1/16" = 1'-0"
140
0.0625
141
12.0
290
     0
  0
SCALE
  5
2C9
102
{ACAD_REACTORS
330
2B3
102
}
330
2B3
100
AcDbScale
 70
     0
300
3/32" = 1'-0"
140
0.09375
141
12.0
290
     0
  0
SCALE
  5
2CA
102
{ACAD_REACTORS
330
2B3
102
}
330
2B3
100
AcDbScale
 70
     0
300
1/8" = 1'-0"
140
0.125
141
12.0
290
     0
  0
SCALE
  5
2CB
102
{ACAD_REACTORS
330
2B3
102
}
330
2B3
100
AcDbScale
 70
     0
300
3/16" = 1'-0"
140
0.1875
141
12.0
290
     0
  0
SCALE
  5
2CC
102
{ACAD_REACTORS
330
2B3
102
}
330
2B3
100
AcDbScale
 70
     0
300
1/4" = 1'-0"
140
0.25
141
12.0
290
     0
  0
SCALE
  5
2CD
102
{ACAD_REACTORS
330
2B3
102
}
330
2B3
100
AcDbScale
 70
     0
300
3/8" = 1'-0"
140
0.375
141
12.0
290
     0
  0
SCALE
  5
2CE
102
{ACAD_REACTORS
330
2B3
102
}
330
2B3
100
AcDbScale
 70
     0
300
1/2" = 1'-0"
140
0.5
141
12.0
290
     0
  0
SCALE
  5
2CF
102
{ACAD_REACTORS
330
2B3
102
}
330
2B3
100
AcDbScale
 70
     0
300
3/4" = 1'-0"
140
0.75
141
12.0
290
     0
  0
SCALE
  5
2D0
102
{ACAD_REACTORS
330
2B3
102
}
330
2B3
100
AcDbScale
 70
     0
300
1" = 1'-0"
140
1.0
141
12.0
290
     0
  0
SCALE
  5
2D1
102
{ACAD_REACTORS
330
2B3
102
}
330
2B3
100
AcDbScale
 70
     0
300
1-1/2" = 1'-0"
140
1.5
141
12.0
290
     0
  0
SCALE
  5
2D2
102
{ACAD_REACTORS
330
2B3
102
}
330
2B3
100
AcDbScale
 70
     0
300
3" = 1'-0"
140
3.0
141
12.0
290
     0
  0
SCALE
  5
2D3
102
{ACAD_REACTORS
330
2B3
102
}
330
2B3
100
AcDbScale
 70
     0
300
6" = 1'-0"
140
6.0
141
12.0
290
     0
  0
SCALE
  5
2D4
102
{ACAD_REACTORS
330
2B3
102
}
330
2B3
100
AcDbScale
 70
     0
300
1'-0" = 1'-0"
140
12.0
141
12.0
290
     0
  0
TABLESTYLE
  5
2B2
102
{ACAD_XDICTIONARY
360
2E0
102
}
102
{ACAD_REACTORS
330
291
102
}
330
291
100
AcDbTableStyle
  3
Standard
 70
     0
 71
     0
 40
0.06
 41
0.06
280
     0
281
     0
  7
Standard
140
0.18
170
     2
 62
     0
 63
     7
283
     0
 90
      512
 91
        0
  1

274
    -2
284
     1
 64
     0
275
    -2
285
     1
 65
     0
276
    -2
286
     1
 66
     0
277
    -2
287
     1
 67
     0
278
    -2
288
     1
 68
     0
279
    -2
289
     1
 69
     0
  7
Standard
140
0.25
170
     5
 62
     0
 63
     7
283
     0
 90
      512
 91
        0
  1

274
    -2
284
     1
 64
     0
275
    -2
285
     1
 65
     0
276
    -2
286
     1
 66
     0
277
    -2
287
     1
 67
     0
278
    -2
288
     1
 68
     0
279
    -2
289
     1
 69
     0
  7
Standard
140
0.18
170
     5
 62
     0
 63
     7
283
     0
 90
      512
 91
        0
  1

274
    -2
284
     1
 64
     0
275
    -2
285
     1
 65
     0
276
    -2
286
     1
 66
     0
277
    -2
287
     1
 67
     0
278
    -2
288
     1
 68
     0
279
    -2
289
     1
 69
     0
  0
VISUALSTYLE
  5
2F
102
{ACAD_XDICTIONARY
360
2EB
102
}
102
{ACAD_REACTORS
330
2A
102
}
330
2A
100
AcDbVisualStyle
  2

 70
     4
 71
     0
 72
     2
 73
     0
 90
        0
 40
-0.6
 41
-30.0
 62
     5
 63
     7
421
 16777215
 74
     1
 91
        4
 64
     7
 65
   257
 75
     1
175
     1
 42
1.0
 92
        0
 66
   257
 43
1.0
 76
     1
 77
     6
 78
     2
 67
     7
 79
     5
170
     0
171
     0
290
     0
174
     0
 93
        1
 44
0.0
173
     0
291
     0
 45
0.0
1001
ACAD
1000
AcDbSavedByObjectVersion
1070
     0
  0
VISUALSTYLE
  5
31
102
{ACAD_XDICTIONARY
360
2EF
102
}
102
{ACAD_REACTORS
330
2A
102
}
330
2A
100
AcDbVisualStyle
  2

 70
     6
 71
     1
 72
     2
 73
     2
 90
        0
 40
-0.6
 41
-30.0
 62
     5
 63
     7
421
 16777215
 74
     2
 91
        2
 64
     7
 65
   257
 75
     2
175
     1
 42
40.0
 92
        0
 66
   257
 43
1.0
 76
     1
 77
     6
 78
     2
 67
     7
 79
     3
170
     0
171
     0
290
     0
174
     0
 93
        1
 44
0.0
173
     0
291
     0
 45
0.0
1001
ACAD
1000
AcDbSavedByObjectVersion
1070
     0
  0
VISUALSTYLE
  5
30
102
{ACAD_XDICTIONARY
360
2ED
102
}
102
{ACAD_REACTORS
330
2A
102
}
330
2A
100
AcDbVisualStyle
  2

 70
     5
 71
     0
 72
     2
 73
     0
 90
        0
 40
-0.6
 41
-30.0
 62
     5
 63
     7
421
 16777215
 74
     1
 91
        4
 64
     7
 65
   257
 75
     1
175
     1
 42
1.0
 92
        0
 66
   257
 43
1.0
 76
     1
 77
     6
 78
     2
 67
     7
 79
     5
170
     0
171
     0
290
     0
174
     0
 93
        1
 44
0.0
173
     0
291
     0
 45
0.0
1001
ACAD
1000
AcDbSavedByObjectVersion
1070
     0
  0
VISUALSTYLE
  5
32
102
{ACAD_XDICTIONARY
360
2F1
102
}
102
{ACAD_REACTORS
330
2A
102
}
330
2A
100
AcDbVisualStyle
  2

 70
     7
 71
     1
 72
     0
 73
     1
 90
        0
 40
-0.6
 41
-30.0
 62
     5
 63
     7
421
 16777215
 74
     0
 91
        4
 64
     7
 65
   257
 75
     1
175
     1
 42
1.0
 92
        8
 66
     7
 43
1.0
 76
     1
 77
     6
 78
     2
 67
     7
 79
     5
170
     0
171
     0
290
     0
174
     0
 93
        1
 44
0.0
173
     0
291
     1
 45
0.0
1001
ACAD
1000
AcDbSavedByObjectVersion
1070
     0
  0
VISUALSTYLE
  5
36
102
{ACAD_XDICTIONARY
360
2F9
102
}
102
{ACAD_REACTORS
330
2A
102
}
330
2A
100
AcDbVisualStyle
  2

 70
    12
 71
     2
 72
     2
 73
     0
 90
        0
 40
-0.6
 41
-30.0
 62
     5
 63
     7
421
 16777215
 74
     1
 91
        4
 64
     7
 65
   257
 75
     1
175
     1
 42
1.0
 92
        8
 66
     7
 43
1.0
 76
     1
 77
     6
 78
     2
 67
     7
 79
     5
170
     0
171
     0
290
     0
174
     0
 93
        1
 44
50.0
173
     0
291
     1
 45
0.0
1001
ACAD
1000
AcDbSavedByObjectVersion
1070
     0
  0
VISUALSTYLE
  5
3A
102
{ACAD_XDICTIONARY
360
301
102
}
102
{ACAD_REACTORS
330
2A
102
}
330
2A
100
AcDbVisualStyle
  2

 70
    16
 71
     2
 72
     2
 73
     3
 90
        0
 40
-0.6
 41
-30.0
 62
     5
 63
     8
421
  8421504
 74
     1
 91
        4
 64
     7
 65
   257
 75
     1
175
     1
 42
1.0
 92
        8
 66
     8
424
  8421504
 43
1.0
 76
     1
 77
     6
 78
     2
 67
     7
 79
     5
170
     0
171
     0
290
     0
174
     0
 93
        1
 44
0.0
173
     0
291
     1
 45
0.0
1001
ACAD
1000
AcDbSavedByObjectVersion
1070
     0
  0
VISUALSTYLE
  5
34
102
{ACAD_XDICTIONARY
360
2F5
102
}
102
{ACAD_REACTORS
330
2A
102
}
330
2A
100
AcDbVisualStyle
  2

 70
     9
 71
     3
 72
     2
 73
     0
 90
        0
 40
-0.6
 41
-30.0
 62
     5
 63
     7
421
 16777215
 74
     2
 91
        2
 64
     7
 65
   257
 75
     1
175
     1
 42
40.0
 92
        8
 66
     7
 43
1.0
 76
     1
 77
     6
 78
     2
 67
     7
 79
     3
170
     0
171
     0
290
     0
174
     0
 93
        1
 44
0.0
173
     0
291
     0
 45
0.0
1001
ACAD
1000
AcDbSavedByObjectVersion
1070
     0
  0
VISUALSTYLE
  5
35
102
{ACAD_XDICTIONARY
360
2F7
102
}
102
{ACAD_REACTORS
330
2A
102
}
330
2A
100
AcDbVisualStyle
  2

 70
    11
 71
     2
 72
     2
 73
     0
 90
        0
 40
-0.6
 41
-30.0
 62
     5
 63
     7
421
 16777215
 74
     1
 91
        4
 64
     7
 65
   257
 75
     1
175
     1
 42
1.0
 92
        8
 66
     7
 43
1.0
 76
     1
 77
     6
 78
     2
 67
     7
 79
     5
170
     0
171
     0
290
     0
174
     0
 93
        1
 44
-50.0
173
     0
291
     1
 45
0.0
1001
ACAD
1000
AcDbSavedByObjectVersion
1070
     0
  0
VISUALSTYLE
  5
2B0
102
{ACAD_XDICTIONARY
360
307
102
}
102
{ACAD_REACTORS
330
2A
102
}
330
2A
100
AcDbVisualStyle
  2
EdgeColorOff
 70
    22
 71
     2
 72
     2
 73
     0
 90
        0
 40
-0.6
 41
-30.0
 62
     5
 63
     7
421
 16777215
 74
     1
 91
        4
 64
     7
 65
   257
 75
     1
175
     1
 42
1.0
 92
        8
 66
     7
 43
1.0
 76
     1
 77
     6
 78
     2
 67
     7
 79
     5
170
     0
171
     0
290
     0
174
     0
 93
        1
 44
0.0
173
     0
291
     1
 45
0.0
1001
ACAD
1000
AcDbSavedByObjectVersion
1070
     0
  0
VISUALSTYLE
  5
39
102
{ACAD_XDICTIONARY
360
2FF
102
}
102
{ACAD_REACTORS
330
2A
102
}
330
2A
100
AcDbVisualStyle
  2

 70
    15
 71
     2
 72
     2
 73
     0
 90
        0
 40
-0.6
 41
-30.0
 62
     5
 63
     7
421
 16777215
 74
     1
 91
        4
 64
     7
 65
   257
 75
     1
175
     1
 42
1.0
 92
        8
 66
     7
 43
1.0
 76
     1
 77
     6
 78
     2
 67
     7
 79
     5
170
     0
171
     0
290
     0
174
     0
 93
        1
 44
0.0
173
     0
291
     1
 45
0.0
1001
ACAD
1000
AcDbSavedByObjectVersion
1070
     0
  0
VISUALSTYLE
  5
2B
102
{ACAD_XDICTIONARY
360
2E3
102
}
102
{ACAD_REACTORS
330
2A
102
}
330
2A
100
AcDbVisualStyle
  2

 70
     0
 71
     2
 72
     1
 73
     1
 90
        2
 40
-0.6
 41
30.0
 62
     5
 63
     7
421
 16777215
 74
     0
 91
        4
 64
     7
 65
   257
 75
     1
175
     1
 42
1.0
 92
        8
 66
     7
 43
1.0
 76
     1
 77
     6
 78
     2
 67
     7
 79
     5
170
     0
171
     0
290
     0
174
     0
 93
       13
 44
0.0
173
     0
291
     1
 45
0.0
1001
ACAD
1000
AcDbSavedByObjectVersion
1070
     0
  0
VISUALSTYLE
  5
2C
102
{ACAD_XDICTIONARY
360
2E5
102
}
102
{ACAD_REACTORS
330
2A
102
}
330
2A
100
AcDbVisualStyle
  2

 70
     1
 71
     2
 72
     1
 73
     1
 90
        2
 40
-0.6
 41
30.0
 62
     5
 63
     7
421
 16777215
 74
     1
 91
        4
 64
     7
 65
   257
 75
     1
175
     1
 42
1.0
 92
        0
 66
   257
 43
1.0
 76
     1
 77
     6
 78
     2
 67
     7
 79
     5
170
     0
171
     0
290
     0
174
     0
 93
       13
 44
0.0
173
     0
291
     1
 45
0.0
1001
ACAD
1000
AcDbSavedByObjectVersion
1070
     0
  0
VISUALSTYLE
  5
2D
102
{ACAD_XDICTIONARY
360
2E7
102
}
102
{ACAD_REACTORS
330
2A
102
}
330
2A
100
AcDbVisualStyle
  2

 70
     2
 71
     2
 72
     2
 73
     1
 90
        2
 40
-0.6
 41
30.0
 62
     5
 63
     7
421
 16777215
 74
     0
 91
        4
 64
     7
 65
   257
 75
     1
175
     1
 42
1.0
 92
        0
 66
     7
 43
1.0
 76
     1
 77
     6
 78
     2
 67
     7
 79
     5
170
     0
171
     0
290
     0
174
     0
 93
       13
 44
0.0
173
     0
291
     1
 45
0.0
1001
ACAD
1000
AcDbSavedByObjectVersion
1070
     0
  0
VISUALSTYLE
  5
2E
102
{ACAD_XDICTIONARY
360
2E9
102
}
102
{ACAD_REACTORS
330
2A
102
}
330
2A
100
AcDbVisualStyle
  2

 70
     3
 71
     2
 72
     2
 73
     1
 90
        2
 40
-0.6
 41
30.0
 62
     5
 63
     7
421
 16777215
 74
     1
 91
        4
 64
     7
 65
   257
 75
     1
175
     1
 42
1.0
 92
        0
 66
   257
 43
1.0
 76
     1
 77
     6
 78
     2
 67
     7
 79
     5
170
     0
171
     0
290
     0
174
     0
 93
       13
 44
0.0
173
     0
291
     1
 45
0.0
1001
ACAD
1000
AcDbSavedByObjectVersion
1070
     0
  0
VISUALSTYLE
  5
2AE
102
{ACAD_XDICTIONARY
360
303
102
}
102
{ACAD_REACTORS
330
2A
102
}
330
2A
100
AcDbVisualStyle
  2
JitterOff
 70
    20
 71
     2
 72
     2
 73
     0
 90
        0
 40
-0.6
 41
-30.0
 62
     5
 63
     7
421
 16777215
 74
     1
 91
        4
 64
     7
 65
   257
 75
     1
175
     1
 42
1.0
 92
       10
 66
     7
 43
1.0
 76
     1
 77
     6
 78
     2
 67
     7
 79
     5
170
     0
171
     0
290
     0
174
     0
 93
        1
 44
0.0
173
     0
291
     1
 45
0.0
1001
ACAD
1000
AcDbSavedByObjectVersion
1070
     0
  0
VISUALSTYLE
  5
38
102
{ACAD_XDICTIONARY
360
2FD
102
}
102
{ACAD_REACTORS
330
2A
102
}
330
2A
100
AcDbVisualStyle
  2

 70
    14
 71
     2
 72
     2
 73
     0
 90
        0
 40
-0.6
 41
-30.0
 62
     5
 63
     7
421
 16777215
 74
     1
 91
        4
 64
     7
 65
   257
 75
     7
175
     7
 42
1.0
 92
        8
 66
     7
 43
1.0
 76
     1
 77
     6
 78
     2
 67
     7
 79
     5
170
     0
171
     0
290
     0
174
     0
 93
        1
 44
0.0
173
     0
291
     1
 45
0.0
1001
ACAD
1000
AcDbSavedByObjectVersion
1070
     0
  0
VISUALSTYLE
  5
2AF
102
{ACAD_XDICTIONARY
360
305
102
}
102
{ACAD_REACTORS
330
2A
102
}
330
2A
100
AcDbVisualStyle
  2
OverhangOff
 70
    21
 71
     2
 72
     2
 73
     0
 90
        0
 40
-0.6
 41
-30.0
 62
     5
 63
     7
421
 16777215
 74
     1
 91
        4
 64
     7
 65
   257
 75
     1
175
     1
 42
1.0
 92
        9
 66
     7
 43
1.0
 76
     1
 77
     6
 78
     2
 67
     7
 79
     5
170
     0
171
     0
290
     0
174
     0
 93
        1
 44
0.0
173
     0
291
     1
 45
0.0
1001
ACAD
1000
AcDbSavedByObjectVersion
1070
     0
  0
VISUALSTYLE
  5
33
102
{ACAD_XDICTIONARY
360
2F3
102
}
102
{ACAD_REACTORS
330
2A
102
}
330
2A
100
AcDbVisualStyle
  2

 70
     8
 71
     2
 72
     2
 73
     0
 90
        0
 40
-0.6
 41
-30.0
 62
     5
 63
     7
421
 16777215
 74
     1
 91
        0
 64
     7
 65
   257
 75
     1
175
     1
 42
1.0
 92
        8
 66
     8
424
  7895160
 43
1.0
 76
     1
 77
     6
 78
     2
 67
     7
 79
     5
170
     0
171
     0
290
     0
174
     0
 93
       13
 44
0.0
173
     0
291
     0
 45
0.0
1001
ACAD
1000
AcDbSavedByObjectVersion
1070
     0
  0
VISUALSTYLE
  5
37
102
{ACAD_XDICTIONARY
360
2FB
102
}
102
{ACAD_REACTORS
330
2A
102
}
330
2A
100
AcDbVisualStyle
  2

 70
    13
 71
     2
 72
     2
 73
     0
 90
        0
 40
-0.6
 41
-30.0
 62
     5
 63
     7
421
 16777215
 74
     1
 91
        4
 64
     7
 65
   257
 75
     1
175
     1
 42
1.0
 92
       12
 66
     7
 43
1.0
 76
     1
 77
     6
 78
     2
 67
     7
 79
     5
170
     0
171
     0
290
     0
174
     0
 93
        1
 44
0.0
173
     0
291
     1
 45
0.0
1001
ACAD
1000
AcDbSavedByObjectVersion
1070
     0
  0
DICTIONARYVAR
  5
2DC
102
{ACAD_REACTORS
330
2D8
102
}
330
2D8
100
DictionaryVariables
280
     0
  1
1:1
  0
DICTIONARYVAR
  5
2DA
102
{ACAD_REACTORS
330
2D8
102
}
330
2D8
100
DictionaryVariables
280
     0
  1
STANDARD
  0
DICTIONARYVAR
  5
2D9
102
{ACAD_REACTORS
330
2D8
102
}
330
2D8
100
DictionaryVariables
280
     0
  1
STANDARD
  0
DICTIONARYVAR
  5
2DE
102
{ACAD_REACTORS
330
2D8
102
}
330
2D8
100
DictionaryVariables
280
     0
  1
1
  0
DICTIONARYVAR
  5
2DF
102
{ACAD_REACTORS
330
2D8
102
}
330
2D8
100
DictionaryVariables
280
     0
  1
15
  0
DICTIONARYVAR
  5
2DD
102
{ACAD_REACTORS
330
2D8
102
}
330
2D8
100
DictionaryVariables
280
     0
  1
0
  0
DICTIONARYVAR
  5
2DB
102
{ACAD_REACTORS
330
2D8
102
}
330
2D8
100
DictionaryVariables
280
     0
  1
0
  0
DICTIONARY
  5
29F
330
29E
100
AcDbDictionary
280
     1
281
     1
  3
BUMPTILE
360
2A1
  3
DIFFUSETILE
360
2A0
  3
OPACITYTILE
360
2A4
  3
REFLECTIONTILE
360
2A3
  3
REFRACTIONTILE
360
2A5
  3
SPECULARTILE
360
2A2
  0
DICTIONARY
  5
297
330
296
100
AcDbDictionary
280
     1
281
     1
  3
BUMPTILE
360
299
  3
DIFFUSETILE
360
298
  3
OPACITYTILE
360
29C
  3
REFLECTIONTILE
360
29B
  3
REFRACTIONTILE
360
29D
  3
SPECULARTILE
360
29A
  0
DICTIONARY
  5
2A7
330
2A6
100
AcDbDictionary
280
     1
281
     1
  3
BUMPTILE
360
2A9
  3
DIFFUSETILE
360
2A8
  3
OPACITYTILE
360
2AC
  3
REFLECTIONTILE
360
2AB
  3
REFRACTIONTILE
360
2AD
  3
SPECULARTILE
360
2AA
  0
DICTIONARY
  5
2E0
330
2B2
100
AcDbDictionary
280
     1
281
     1
  3
ACAD_ROUNDTRIP_2008_TABLESTYLE_CELLSTYLEMAP
360
2E1
  0
DICTIONARY
  5
2EB
330
2F
100
AcDbDictionary
280
     1
281
     1
  3
ACAD_XREC_ROUNDTRIP
360
2EC
  0
DICTIONARY
  5
2EF
330
31
100
AcDbDictionary
280
     1
281
     1
  3
ACAD_XREC_ROUNDTRIP
360
2F0
  0
DICTIONARY
  5
2ED
330
30
100
AcDbDictionary
280
     1
281
     1
  3
ACAD_XREC_ROUNDTRIP
360
2EE
  0
DICTIONARY
  5
2F1
330
32
100
AcDbDictionary
280
     1
281
     1
  3
ACAD_XREC_ROUNDTRIP
360
2F2
  0
DICTIONARY
  5
2F9
330
36
100
AcDbDictionary
280
     1
281
     1
  3
ACAD_XREC_ROUNDTRIP
360
2FA
  0
DICTIONARY
  5
301
330
3A
100
AcDbDictionary
280
     1
281
     1
  3
ACAD_XREC_ROUNDTRIP
360
302
  0
DICTIONARY
  5
2F5
330
34
100
AcDbDictionary
280
     1
281
     1
  3
ACAD_XREC_ROUNDTRIP
360
2F6
  0
DICTIONARY
  5
2F7
330
35
100
AcDbDictionary
280
     1
281
     1
  3
ACAD_XREC_ROUNDTRIP
360
2F8
  0
DICTIONARY
  5
307
330
2B0
100
AcDbDictionary
280
     1
281
     1
  3
ACAD_XREC_ROUNDTRIP
360
308
  0
DICTIONARY
  5
2FF
330
39
100
AcDbDictionary
280
     1
281
     1
  3
ACAD_XREC_ROUNDTRIP
360
300
  0
DICTIONARY
  5
2E3
330
2B
100
AcDbDictionary
280
     1
281
     1
  3
ACAD_XREC_ROUNDTRIP
360
2E4
  0
DICTIONARY
  5
2E5
330
2C
100
AcDbDictionary
280
     1
281
     1
  3
ACAD_XREC_ROUNDTRIP
360
2E6
  0
DICTIONARY
  5
2E7
330
2D
100
AcDbDictionary
280
     1
281
     1
  3
ACAD_XREC_ROUNDTRIP
360
2E8
  0
DICTIONARY
  5
2E9
330
2E
100
AcDbDictionary
280
     1
281
     1
  3
ACAD_XREC_ROUNDTRIP
360
2EA
  0
DICTIONARY
  5
303
330
2AE
100
AcDbDictionary
280
     1
281
     1
  3
ACAD_XREC_ROUNDTRIP
360
304
  0
DICTIONARY
  5
2FD
330
38
100
AcDbDictionary
280
     1
281
     1
  3
ACAD_XREC_ROUNDTRIP
360
2FE
  0
DICTIONARY
  5
305
330
2AF
100
AcDbDictionary
280
     1
281
     1
  3
ACAD_XREC_ROUNDTRIP
360
306
  0
DICTIONARY
  5
2F3
330
33
100
AcDbDictionary
280
     1
281
     1
  3
ACAD_XREC_ROUNDTRIP
360
2F4
  0
DICTIONARY
  5
2FB
330
37
100
AcDbDictionary
280
     1
281
     1
  3
ACAD_XREC_ROUNDTRIP
360
2FC
  0
XRECORD
  5
2A1
102
{ACAD_REACTORS
330
29F
102
}
330
29F
100
AcDbXrecord
280
     1
270
     1
271
     1
  0
XRECORD
  5
2A0
102
{ACAD_REACTORS
330
29F
102
}
330
29F
100
AcDbXrecord
280
     1
270
     1
271
     1
  0
XRECORD
  5
2A4
102
{ACAD_REACTORS
330
29F
102
}
330
29F
100
AcDbXrecord
280
     1
270
     1
271
     1
  0
XRECORD
  5
2A3
102
{ACAD_REACTORS
330
29F
102
}
330
29F
100
AcDbXrecord
280
     1
270
     1
271
     1
  0
XRECORD
  5
2A5
102
{ACAD_REACTORS
330
29F
102
}
330
29F
100
AcDbXrecord
280
     1
270
     1
271
     1
  0
XRECORD
  5
2A2
102
{ACAD_REACTORS
330
29F
102
}
330
29F
100
AcDbXrecord
280
     1
270
     1
271
     1
  0
XRECORD
  5
299
102
{ACAD_REACTORS
330
297
102
}
330
297
100
AcDbXrecord
280
     1
270
     1
271
     1
  0
XRECORD
  5
298
102
{ACAD_REACTORS
330
297
102
}
330
297
100
AcDbXrecord
280
     1
270
     1
271
     1
  0
XRECORD
  5
29C
102
{ACAD_REACTORS
330
297
102
}
330
297
100
AcDbXrecord
280
     1
270
     1
271
     1
  0
XRECORD
  5
29B
102
{ACAD_REACTORS
330
297
102
}
330
297
100
AcDbXrecord
280
     1
270
     1
271
     1
  0
XRECORD
  5
29D
102
{ACAD_REACTORS
330
297
102
}
330
297
100
AcDbXrecord
280
     1
270
     1
271
     1
  0
XRECORD
  5
29A
102
{ACAD_REACTORS
330
297
102
}
330
297
100
AcDbXrecord
280
     1
270
     1
271
     1
  0
XRECORD
  5
2A9
102
{ACAD_REACTORS
330
2A7
102
}
330
2A7
100
AcDbXrecord
280
     1
270
     1
271
     1
  0
XRECORD
  5
2A8
102
{ACAD_REACTORS
330
2A7
102
}
330
2A7
100
AcDbXrecord
280
     1
270
     1
271
     1
  0
XRECORD
  5
2AC
102
{ACAD_REACTORS
330
2A7
102
}
330
2A7
100
AcDbXrecord
280
     1
270
     1
271
     1
  0
XRECORD
  5
2AB
102
{ACAD_REACTORS
330
2A7
102
}
330
2A7
100
AcDbXrecord
280
     1
270
     1
271
     1
  0
XRECORD
  5
2AD
102
{ACAD_REACTORS
330
2A7
102
}
330
2A7
100
AcDbXrecord
280
     1
270
     1
271
     1
  0
XRECORD
  5
2AA
102
{ACAD_REACTORS
330
2A7
102
}
330
2A7
100
AcDbXrecord
280
     1
270
     1
271
     1
  0
CELLSTYLEMAP
  5
2E1
102
{ACAD_REACTORS
330
2E0
102
}
330
2E0
100
AcDbCellStyleMap
 90
        3
300
CELLSTYLE
  1
TABLEFORMAT_BEGIN
 90
        5
170
     1
 91
        0
 92
    32768
 62
   257
 93
        1
300
CONTENTFORMAT
  1
CONTENTFORMAT_BEGIN
 90
        0
 91
        0
 92
      512
 93
        0
300

 40
0.0
140
1.0
 94
        5
 62
     0
340
11
144
0.25
309
CONTENTFORMAT_END
171
     0
 94
        0
309
TABLEFORMAT_END
  1
CELLSTYLE_BEGIN
 90
        1
 91
        1
300
_TITLE
309
CELLSTYLE_END
300
CELLSTYLE
  1
TABLEFORMAT_BEGIN
 90
        5
170
     1
 91
        0
 92
        0
 62
   257
 93
        1
300
CONTENTFORMAT
  1
CONTENTFORMAT_BEGIN
 90
        0
 91
        0
 92
      512
 93
        0
300

 40
0.0
140
1.0
 94
        5
 62
     0
340
11
144
0.18
309
CONTENTFORMAT_END
171
     0
 94
        0
309
TABLEFORMAT_END
  1
CELLSTYLE_BEGIN
 90
        2
 91
        1
300
_HEADER
309
CELLSTYLE_END
300
CELLSTYLE
  1
TABLEFORMAT_BEGIN
 90
        5
170
     1
 91
        0
 92
        0
 62
   257
 93
        1
300
CONTENTFORMAT
  1
CONTENTFORMAT_BEGIN
 90
        0
 91
        0
 92
      512
 93
        0
300

 40
0.0
140
1.0
 94
        2
 62
     0
340
11
144
0.18
309
CONTENTFORMAT_END
171
     0
 94
        0
309
TABLEFORMAT_END
  1
CELLSTYLE_BEGIN
 90
        3
 91
        2
300
_DATA
309
CELLSTYLE_END
  0
XRECORD
  5
2EC
102
{ACAD_REACTORS
330
2EB
102
}
330
2EB
100
AcDbXrecord
280
     1
102
RTVSPropertyOp0
 70
     1
102
RTVSPropertyOp1
 70
     1
102
RTVSPropertyOp2
 70
     1
102
RTVSPropertyOp3
 70
     1
102
RTVSPropertyOp4
 70
     1
102
RTVSPropertyOp5
 70
     1
102
RTVSPropertyOp6
 70
     1
102
RTVSPropertyOp7
 70
     1
102
RTVSPropertyOp8
 70
     1
102
RTVSPropertyOp9
 70
     1
102
RTVSPropertyOp10
 70
     1
102
RTVSPropertyOp11
 70
     1
102
RTVSPropertyOp12
 70
     1
102
RTVSPropertyOp13
 70
     1
102
RTVSPropertyOp14
 70
     1
102
RTVSPropertyOp15
 70
     1
102
RTVSPropertyOp16
 70
     1
102
RTVSPropertyOp17
 70
     1
102
RTVSPropertyOp18
 70
     1
102
RTVSPropertyOp19
 70
     1
102
RTVSPropertyOp20
 70
     1
102
RTVSPropertyOp21
 70
     1
102
RTVSPropertyOp22
 70
     1
102
RTVSPropertyOp23
 70
     1
102
RTVSPropertyOp24
 70
     1
102
RTVSPropertyOp25
 70
     1
102
RTVSPropertyOp26
 70
     1
102
RTVSPropertyOp27
 70
     1
  0
XRECORD
  5
2F0
102
{ACAD_REACTORS
330
2EF
102
}
330
2EF
100
AcDbXrecord
280
     1
102
RTVSPropertyOp0
 70
     1
102
RTVSPropertyOp1
 70
     1
102
RTVSPropertyOp2
 70
     1
102
RTVSPropertyOp3
 70
     1
102
RTVSPropertyOp4
 70
     1
102
RTVSPropertyOp5
 70
     1
102
RTVSPropertyOp6
 70
     1
102
RTVSPropertyOp7
 70
     1
102
RTVSPropertyOp8
 70
     1
102
RTVSPropertyOp9
 70
     1
102
RTVSPropertyOp10
 70
     1
102
RTVSPropertyOp11
 70
     1
102
RTVSPropertyOp12
 70
     1
102
RTVSPropertyOp13
 70
     1
102
RTVSPropertyOp14
 70
     1
102
RTVSPropertyOp15
 70
     1
102
RTVSPropertyOp16
 70
     1
102
RTVSPropertyOp17
 70
     1
102
RTVSPropertyOp18
 70
     1
102
RTVSPropertyOp19
 70
     1
102
RTVSPropertyOp20
 70
     1
102
RTVSPropertyOp21
 70
     1
102
RTVSPropertyOp22
 70
     1
102
RTVSPropertyOp23
 70
     1
102
RTVSPropertyOp24
 70
     1
102
RTVSPropertyOp25
 70
     1
102
RTVSPropertyOp26
 70
     1
102
RTVSPropertyOp27
 70
     1
  0
XRECORD
  5
2EE
102
{ACAD_REACTORS
330
2ED
102
}
330
2ED
100
AcDbXrecord
280
     1
102
RTVSPropertyOp0
 70
     1
102
RTVSPropertyOp1
 70
     1
102
RTVSPropertyOp2
 70
     1
102
RTVSPropertyOp3
 70
     1
102
RTVSPropertyOp4
 70
     1
102
RTVSPropertyOp5
 70
     1
102
RTVSPropertyOp6
 70
     1
102
RTVSPropertyOp7
 70
     1
102
RTVSPropertyOp8
 70
     1
102
RTVSPropertyOp9
 70
     1
102
RTVSPropertyOp10
 70
     1
102
RTVSPropertyOp11
 70
     1
102
RTVSPropertyOp12
 70
     1
102
RTVSPropertyOp13
 70
     1
102
RTVSPropertyOp14
 70
     1
102
RTVSPropertyOp15
 70
     1
102
RTVSPropertyOp16
 70
     1
102
RTVSPropertyOp17
 70
     1
102
RTVSPropertyOp18
 70
     1
102
RTVSPropertyOp19
 70
     1
102
RTVSPropertyOp20
 70
     1
102
RTVSPropertyOp21
 70
     1
102
RTVSPropertyOp22
 70
     1
102
RTVSPropertyOp23
 70
     1
102
RTVSPropertyOp24
 70
     1
102
RTVSPropertyOp25
 70
     1
102
RTVSPropertyOp26
 70
     1
102
RTVSPropertyOp27
 70
     1
  0
XRECORD
  5
2F2
102
{ACAD_REACTORS
330
2F1
102
}
330
2F1
100
AcDbXrecord
280
     1
102
RTVSPropertyOp0
 70
     1
102
RTVSPropertyOp1
 70
     1
102
RTVSPropertyOp2
 70
     1
102
RTVSPropertyOp3
 70
     1
102
RTVSPropertyOp4
 70
     1
102
RTVSPropertyOp5
 70
     1
102
RTVSPropertyOp6
 70
     1
102
RTVSPropertyOp7
 70
     1
102
RTVSPropertyOp8
 70
     1
102
RTVSPropertyOp9
 70
     1
102
RTVSPropertyOp10
 70
     1
102
RTVSPropertyOp11
 70
     1
102
RTVSPropertyOp12
 70
     1
102
RTVSPropertyOp13
 70
     1
102
RTVSPropertyOp14
 70
     1
102
RTVSPropertyOp15
 70
     1
102
RTVSPropertyOp16
 70
     1
102
RTVSPropertyOp17
 70
     1
102
RTVSPropertyOp18
 70
     1
102
RTVSPropertyOp19
 70
     1
102
RTVSPropertyOp20
 70
     1
102
RTVSPropertyOp21
 70
     1
102
RTVSPropertyOp22
 70
     1
102
RTVSPropertyOp23
 70
     1
102
RTVSPropertyOp24
 70
     1
102
RTVSPropertyOp25
 70
     1
102
RTVSPropertyOp26
 70
     1
102
RTVSPropertyOp27
 70
     1
  0
XRECORD
  5
2FA
102
{ACAD_REACTORS
330
2F9
102
}
330
2F9
100
AcDbXrecord
280
     1
102
RTVSPropertyOp0
 70
     1
102
RTVSPropertyOp1
 70
     1
102
RTVSPropertyOp2
 70
     1
102
RTVSPropertyOp3
 70
     1
102
RTVSPropertyOp4
 70
     1
102
RTVSPropertyOp5
 70
     1
102
RTVSPropertyOp6
 70
     1
102
RTVSPropertyOp7
 70
     1
102
RTVSPropertyOp8
 70
     1
102
RTVSPropertyOp9
 70
     1
102
RTVSPropertyOp10
 70
     1
102
RTVSPropertyOp11
 70
     1
102
RTVSPropertyOp12
 70
     1
102
RTVSPropertyOp13
 70
     1
102
RTVSPropertyOp14
 70
     1
102
RTVSPropertyOp15
 70
     1
102
RTVSPropertyOp16
 70
     1
102
RTVSPropertyOp17
 70
     1
102
RTVSPropertyOp18
 70
     1
102
RTVSPropertyOp19
 70
     1
102
RTVSPropertyOp20
 70
     1
102
RTVSPropertyOp21
 70
     1
102
RTVSPropertyOp22
 70
     1
102
RTVSPropertyOp23
 70
     1
102
RTVSPropertyOp24
 70
     1
102
RTVSPropertyOp25
 70
     1
102
RTVSPropertyOp26
 70
     1
102
RTVSPropertyOp27
 70
     1
  0
XRECORD
  5
302
102
{ACAD_REACTORS
330
301
102
}
330
301
100
AcDbXrecord
280
     1
102
RTVSPropertyOp0
 70
     1
102
RTVSPropertyOp1
 70
     1
102
RTVSPropertyOp2
 70
     1
102
RTVSPropertyOp3
 70
     1
102
RTVSPropertyOp4
 70
     1
102
RTVSPropertyOp5
 70
     1
102
RTVSPropertyOp6
 70
     1
102
RTVSPropertyOp7
 70
     1
102
RTVSPropertyOp8
 70
     1
102
RTVSPropertyOp9
 70
     1
102
RTVSPropertyOp10
 70
     1
102
RTVSPropertyOp11
 70
     1
102
RTVSPropertyOp12
 70
     1
102
RTVSPropertyOp13
 70
     1
102
RTVSPropertyOp14
 70
     1
102
RTVSPropertyOp15
 70
     1
102
RTVSPropertyOp16
 70
     1
102
RTVSPropertyOp17
 70
     1
102
RTVSPropertyOp18
 70
     1
102
RTVSPropertyOp19
 70
     1
102
RTVSPropertyOp20
 70
     1
102
RTVSPropertyOp21
 70
     1
102
RTVSPropertyOp22
 70
     1
102
RTVSPropertyOp23
 70
     1
102
RTVSPropertyOp24
 70
     1
102
RTVSPropertyOp25
 70
     1
102
RTVSPropertyOp26
 70
     1
102
RTVSPropertyOp27
 70
     1
  0
XRECORD
  5
2F6
102
{ACAD_REACTORS
330
2F5
102
}
330
2F5
100
AcDbXrecord
280
     1
102
RTVSPropertyOp0
 70
     1
102
RTVSPropertyOp1
 70
     1
102
RTVSPropertyOp2
 70
     1
102
RTVSPropertyOp3
 70
     1
102
RTVSPropertyOp4
 70
     1
102
RTVSPropertyOp5
 70
     1
102
RTVSPropertyOp6
 70
     1
102
RTVSPropertyOp7
 70
     1
102
RTVSPropertyOp8
 70
     1
102
RTVSPropertyOp9
 70
     1
102
RTVSPropertyOp10
 70
     1
102
RTVSPropertyOp11
 70
     1
102
RTVSPropertyOp12
 70
     1
102
RTVSPropertyOp13
 70
     1
102
RTVSPropertyOp14
 70
     1
102
RTVSPropertyOp15
 70
     1
102
RTVSPropertyOp16
 70
     1
102
RTVSPropertyOp17
 70
     1
102
RTVSPropertyOp18
 70
     1
102
RTVSPropertyOp19
 70
     1
102
RTVSPropertyOp20
 70
     1
102
RTVSPropertyOp21
 70
     1
102
RTVSPropertyOp22
 70
     1
102
RTVSPropertyOp23
 70
     1
102
RTVSPropertyOp24
 70
     1
102
RTVSPropertyOp25
 70
     1
102
RTVSPropertyOp26
 70
     1
102
RTVSPropertyOp27
 70
     1
  0
XRECORD
  5
2F8
102
{ACAD_REACTORS
330
2F7
102
}
330
2F7
100
AcDbXrecord
280
     1
102
RTVSPropertyOp0
 70
     1
102
RTVSPropertyOp1
 70
     1
102
RTVSPropertyOp2
 70
     1
102
RTVSPropertyOp3
 70
     1
102
RTVSPropertyOp4
 70
     1
102
RTVSPropertyOp5
 70
     1
102
RTVSPropertyOp6
 70
     1
102
RTVSPropertyOp7
 70
     1
102
RTVSPropertyOp8
 70
     1
102
RTVSPropertyOp9
 70
     1
102
RTVSPropertyOp10
 70
     1
102
RTVSPropertyOp11
 70
     1
102
RTVSPropertyOp12
 70
     1
102
RTVSPropertyOp13
 70
     1
102
RTVSPropertyOp14
 70
     1
102
RTVSPropertyOp15
 70
     1
102
RTVSPropertyOp16
 70
     1
102
RTVSPropertyOp17
 70
     1
102
RTVSPropertyOp18
 70
     1
102
RTVSPropertyOp19
 70
     1
102
RTVSPropertyOp20
 70
     1
102
RTVSPropertyOp21
 70
     1
102
RTVSPropertyOp22
 70
     1
102
RTVSPropertyOp23
 70
     1
102
RTVSPropertyOp24
 70
     1
102
RTVSPropertyOp25
 70
     1
102
RTVSPropertyOp26
 70
     1
102
RTVSPropertyOp27
 70
     1
  0
XRECORD
  5
308
102
{ACAD_REACTORS
330
307
102
}
330
307
100
AcDbXrecord
280
     1
102
RTVSPropertyOp0
 70
     0
102
RTVSPropertyOp1
 70
     0
102
RTVSPropertyOp2
 70
     0
102
RTVSPropertyOp3
 70
     0
102
RTVSPropertyOp4
 70
     0
102
RTVSPropertyOp5
 70
     0
102
RTVSPropertyOp6
 70
     0
102
RTVSPropertyOp7
 70
     0
102
RTVSPropertyOp8
 70
     0
102
RTVSPropertyOp9
 70
     0
102
RTVSPropertyOp10
 70
     0
102
RTVSPropertyOp11
 70
     0
102
RTVSPropertyOp12
 70
     0
102
RTVSPropertyOp13
 70
     0
102
RTVSPropertyOp14
 70
     2
102
RTVSPropertyOp15
 70
     0
102
RTVSPropertyOp16
 70
     0
102
RTVSPropertyOp17
 70
     0
102
RTVSPropertyOp18
 70
     0
102
RTVSPropertyOp19
 70
     0
102
RTVSPropertyOp20
 70
     0
102
RTVSPropertyOp21
 70
     0
102
RTVSPropertyOp22
 70
     0
102
RTVSPropertyOp23
 70
     0
102
RTVSPropertyOp24
 70
     0
102
RTVSPropertyOp25
 70
     0
102
RTVSPropertyOp26
 70
     0
102
RTVSPropertyOp27
 70
     0
  0
XRECORD
  5
300
102
{ACAD_REACTORS
330
2FF
102
}
330
2FF
100
AcDbXrecord
280
     1
102
RTVSPropertyOp0
 70
     1
102
RTVSPropertyOp1
 70
     1
102
RTVSPropertyOp2
 70
     1
102
RTVSPropertyOp3
 70
     1
102
RTVSPropertyOp4
 70
     1
102
RTVSPropertyOp5
 70
     1
102
RTVSPropertyOp6
 70
     1
102
RTVSPropertyOp7
 70
     1
102
RTVSPropertyOp8
 70
     1
102
RTVSPropertyOp9
 70
     1
102
RTVSPropertyOp10
 70
     1
102
RTVSPropertyOp11
 70
     1
102
RTVSPropertyOp12
 70
     1
102
RTVSPropertyOp13
 70
     1
102
RTVSPropertyOp14
 70
     1
102
RTVSPropertyOp15
 70
     1
102
RTVSPropertyOp16
 70
     1
102
RTVSPropertyOp17
 70
     1
102
RTVSPropertyOp18
 70
     1
102
RTVSPropertyOp19
 70
     1
102
RTVSPropertyOp20
 70
     1
102
RTVSPropertyOp21
 70
     1
102
RTVSPropertyOp22
 70
     1
102
RTVSPropertyOp23
 70
     1
102
RTVSPropertyOp24
 70
     1
102
RTVSPropertyOp25
 70
     1
102
RTVSPropertyOp26
 70
     1
102
RTVSPropertyOp27
 70
     1
  0
XRECORD
  5
2E4
102
{ACAD_REACTORS
330
2E3
102
}
330
2E3
100
AcDbXrecord
280
     1
102
RTVSPropertyOp0
 70
     1
102
RTVSPropertyOp1
 70
     1
102
RTVSPropertyOp2
 70
     1
102
RTVSPropertyOp3
 70
     1
102
RTVSPropertyOp4
 70
     1
102
RTVSPropertyOp5
 70
     1
102
RTVSPropertyOp6
 70
     1
102
RTVSPropertyOp7
 70
     1
102
RTVSPropertyOp8
 70
     1
102
RTVSPropertyOp9
 70
     1
102
RTVSPropertyOp10
 70
     1
102
RTVSPropertyOp11
 70
     1
102
RTVSPropertyOp12
 70
     1
102
RTVSPropertyOp13
 70
     1
102
RTVSPropertyOp14
 70
     1
102
RTVSPropertyOp15
 70
     1
102
RTVSPropertyOp16
 70
     1
102
RTVSPropertyOp17
 70
     1
102
RTVSPropertyOp18
 70
     1
102
RTVSPropertyOp19
 70
     1
102
RTVSPropertyOp20
 70
     1
102
RTVSPropertyOp21
 70
     1
102
RTVSPropertyOp22
 70
     1
102
RTVSPropertyOp23
 70
     1
102
RTVSPropertyOp24
 70
     1
102
RTVSPropertyOp25
 70
     1
102
RTVSPropertyOp26
 70
     1
102
RTVSPropertyOp27
 70
     1
  0
XRECORD
  5
2E6
102
{ACAD_REACTORS
330
2E5
102
}
330
2E5
100
AcDbXrecord
280
     1
102
RTVSPropertyOp0
 70
     1
102
RTVSPropertyOp1
 70
     1
102
RTVSPropertyOp2
 70
     1
102
RTVSPropertyOp3
 70
     1
102
RTVSPropertyOp4
 70
     1
102
RTVSPropertyOp5
 70
     1
102
RTVSPropertyOp6
 70
     1
102
RTVSPropertyOp7
 70
     1
102
RTVSPropertyOp8
 70
     1
102
RTVSPropertyOp9
 70
     1
102
RTVSPropertyOp10
 70
     1
102
RTVSPropertyOp11
 70
     1
102
RTVSPropertyOp12
 70
     1
102
RTVSPropertyOp13
 70
     1
102
RTVSPropertyOp14
 70
     1
102
RTVSPropertyOp15
 70
     1
102
RTVSPropertyOp16
 70
     1
102
RTVSPropertyOp17
 70
     1
102
RTVSPropertyOp18
 70
     1
102
RTVSPropertyOp19
 70
     1
102
RTVSPropertyOp20
 70
     1
102
RTVSPropertyOp21
 70
     1
102
RTVSPropertyOp22
 70
     1
102
RTVSPropertyOp23
 70
     1
102
RTVSPropertyOp24
 70
     1
102
RTVSPropertyOp25
 70
     1
102
RTVSPropertyOp26
 70
     1
102
RTVSPropertyOp27
 70
     1
  0
XRECORD
  5
2E8
102
{ACAD_REACTORS
330
2E7
102
}
330
2E7
100
AcDbXrecord
280
     1
102
RTVSPropertyOp0
 70
     1
102
RTVSPropertyOp1
 70
     1
102
RTVSPropertyOp2
 70
     1
102
RTVSPropertyOp3
 70
     1
102
RTVSPropertyOp4
 70
     1
102
RTVSPropertyOp5
 70
     1
102
RTVSPropertyOp6
 70
     1
102
RTVSPropertyOp7
 70
     1
102
RTVSPropertyOp8
 70
     1
102
RTVSPropertyOp9
 70
     1
102
RTVSPropertyOp10
 70
     1
102
RTVSPropertyOp11
 70
     1
102
RTVSPropertyOp12
 70
     1
102
RTVSPropertyOp13
 70
     1
102
RTVSPropertyOp14
 70
     1
102
RTVSPropertyOp15
 70
     1
102
RTVSPropertyOp16
 70
     1
102
RTVSPropertyOp17
 70
     1
102
RTVSPropertyOp18
 70
     1
102
RTVSPropertyOp19
 70
     1
102
RTVSPropertyOp20
 70
     1
102
RTVSPropertyOp21
 70
     1
102
RTVSPropertyOp22
 70
     1
102
RTVSPropertyOp23
 70
     1
102
RTVSPropertyOp24
 70
     1
102
RTVSPropertyOp25
 70
     1
102
RTVSPropertyOp26
 70
     1
102
RTVSPropertyOp27
 70
     1
  0
XRECORD
  5
2EA
102
{ACAD_REACTORS
330
2E9
102
}
330
2E9
100
AcDbXrecord
280
     1
102
RTVSPropertyOp0
 70
     1
102
RTVSPropertyOp1
 70
     1
102
RTVSPropertyOp2
 70
     1
102
RTVSPropertyOp3
 70
     1
102
RTVSPropertyOp4
 70
     1
102
RTVSPropertyOp5
 70
     1
102
RTVSPropertyOp6
 70
     1
102
RTVSPropertyOp7
 70
     1
102
RTVSPropertyOp8
 70
     1
102
RTVSPropertyOp9
 70
     1
102
RTVSPropertyOp10
 70
     1
102
RTVSPropertyOp11
 70
     1
102
RTVSPropertyOp12
 70
     1
102
RTVSPropertyOp13
 70
     1
102
RTVSPropertyOp14
 70
     1
102
RTVSPropertyOp15
 70
     1
102
RTVSPropertyOp16
 70
     1
102
RTVSPropertyOp17
 70
     1
102
RTVSPropertyOp18
 70
     1
102
RTVSPropertyOp19
 70
     1
102
RTVSPropertyOp20
 70
     1
102
RTVSPropertyOp21
 70
     1
102
RTVSPropertyOp22
 70
     1
102
RTVSPropertyOp23
 70
     1
102
RTVSPropertyOp24
 70
     1
102
RTVSPropertyOp25
 70
     1
102
RTVSPropertyOp26
 70
     1
102
RTVSPropertyOp27
 70
     1
  0
XRECORD
  5
304
102
{ACAD_REACTORS
330
303
102
}
330
303
100
AcDbXrecord
280
     1
102
RTVSPropertyOp0
 70
     0
102
RTVSPropertyOp1
 70
     0
102
RTVSPropertyOp2
 70
     0
102
RTVSPropertyOp3
 70
     0
102
RTVSPropertyOp4
 70
     0
102
RTVSPropertyOp5
 70
     0
102
RTVSPropertyOp6
 70
     0
102
RTVSPropertyOp7
 70
     0
102
RTVSPropertyOp8
 70
     0
102
RTVSPropertyOp9
 70
     0
102
RTVSPropertyOp10
 70
     0
102
RTVSPropertyOp11
 70
     0
102
RTVSPropertyOp12
 70
     0
102
RTVSPropertyOp13
 70
     0
102
RTVSPropertyOp14
 70
     2
102
RTVSPropertyOp15
 70
     0
102
RTVSPropertyOp16
 70
     0
102
RTVSPropertyOp17
 70
     0
102
RTVSPropertyOp18
 70
     0
102
RTVSPropertyOp19
 70
     0
102
RTVSPropertyOp20
 70
     0
102
RTVSPropertyOp21
 70
     0
102
RTVSPropertyOp22
 70
     0
102
RTVSPropertyOp23
 70
     0
102
RTVSPropertyOp24
 70
     0
102
RTVSPropertyOp25
 70
     0
102
RTVSPropertyOp26
 70
     0
102
RTVSPropertyOp27
 70
     0
  0
XRECORD
  5
2FE
102
{ACAD_REACTORS
330
2FD
102
}
330
2FD
100
AcDbXrecord
280
     1
102
RTVSPropertyOp0
 70
     1
102
RTVSPropertyOp1
 70
     1
102
RTVSPropertyOp2
 70
     1
102
RTVSPropertyOp3
 70
     1
102
RTVSPropertyOp4
 70
     1
102
RTVSPropertyOp5
 70
     1
102
RTVSPropertyOp6
 70
     1
102
RTVSPropertyOp7
 70
     1
102
RTVSPropertyOp8
 70
     1
102
RTVSPropertyOp9
 70
     1
102
RTVSPropertyOp10
 70
     1
102
RTVSPropertyOp11
 70
     1
102
RTVSPropertyOp12
 70
     1
102
RTVSPropertyOp13
 70
     1
102
RTVSPropertyOp14
 70
     1
102
RTVSPropertyOp15
 70
     1
102
RTVSPropertyOp16
 70
     1
102
RTVSPropertyOp17
 70
     1
102
RTVSPropertyOp18
 70
     1
102
RTVSPropertyOp19
 70
     1
102
RTVSPropertyOp20
 70
     1
102
RTVSPropertyOp21
 70
     1
102
RTVSPropertyOp22
 70
     1
102
RTVSPropertyOp23
 70
     1
102
RTVSPropertyOp24
 70
     1
102
RTVSPropertyOp25
 70
     1
102
RTVSPropertyOp26
 70
     1
102
RTVSPropertyOp27
 70
     1
  0
XRECORD
  5
306
102
{ACAD_REACTORS
330
305
102
}
330
305
100
AcDbXrecord
280
     1
102
RTVSPropertyOp0
 70
     0
102
RTVSPropertyOp1
 70
     0
102
RTVSPropertyOp2
 70
     0
102
RTVSPropertyOp3
 70
     0
102
RTVSPropertyOp4
 70
     0
102
RTVSPropertyOp5
 70
     0
102
RTVSPropertyOp6
 70
     0
102
RTVSPropertyOp7
 70
     0
102
RTVSPropertyOp8
 70
     0
102
RTVSPropertyOp9
 70
     0
102
RTVSPropertyOp10
 70
     0
102
RTVSPropertyOp11
 70
     0
102
RTVSPropertyOp12
 70
     0
102
RTVSPropertyOp13
 70
     0
102
RTVSPropertyOp14
 70
     2
102
RTVSPropertyOp15
 70
     0
102
RTVSPropertyOp16
 70
     0
102
RTVSPropertyOp17
 70
     0
102
RTVSPropertyOp18
 70
     0
102
RTVSPropertyOp19
 70
     0
102
RTVSPropertyOp20
 70
     0
102
RTVSPropertyOp21
 70
     0
102
RTVSPropertyOp22
 70
     0
102
RTVSPropertyOp23
 70
     0
102
RTVSPropertyOp24
 70
     0
102
RTVSPropertyOp25
 70
     0
102
RTVSPropertyOp26
 70
     0
102
RTVSPropertyOp27
 70
     0
  0
XRECORD
  5
2F4
102
{ACAD_REACTORS
330
2F3
102
}
330
2F3
100
AcDbXrecord
280
     1
102
RTVSPropertyOp0
 70
     1
102
RTVSPropertyOp1
 70
     1
102
RTVSPropertyOp2
 70
     1
102
RTVSPropertyOp3
 70
     1
102
RTVSPropertyOp4
 70
     1
102
RTVSPropertyOp5
 70
     1
102
RTVSPropertyOp6
 70
     1
102
RTVSPropertyOp7
 70
     1
102
RTVSPropertyOp8
 70
     1
102
RTVSPropertyOp9
 70
     1
102
RTVSPropertyOp10
 70
     1
102
RTVSPropertyOp11
 70
     1
102
RTVSPropertyOp12
 70
     1
102
RTVSPropertyOp13
 70
     1
102
RTVSPropertyOp14
 70
     1
102
RTVSPropertyOp15
 70
     1
102
RTVSPropertyOp16
 70
     1
102
RTVSPropertyOp17
 70
     1
102
RTVSPropertyOp18
 70
     1
102
RTVSPropertyOp19
 70
     1
102
RTVSPropertyOp20
 70
     1
102
RTVSPropertyOp21
 70
     1
102
RTVSPropertyOp22
 70
     1
102
RTVSPropertyOp23
 70
     1
102
RTVSPropertyOp24
 70
     1
102
RTVSPropertyOp25
 70
     1
102
RTVSPropertyOp26
 70
     1
102
RTVSPropertyOp27
 70
     1
  0
XRECORD
  5
2FC
102
{ACAD_REACTORS
330
2FB
102
}
330
2FB
100
AcDbXrecord
280
     1
102
RTVSPropertyOp0
 70
     1
102
RTVSPropertyOp1
 70
     1
102
RTVSPropertyOp2
 70
     1
102
RTVSPropertyOp3
 70
     1
102
RTVSPropertyOp4
 70
     1
102
RTVSPropertyOp5
 70
     1
102
RTVSPropertyOp6
 70
     1
102
RTVSPropertyOp7
 70
     1
102
RTVSPropertyOp8
 70
     1
102
RTVSPropertyOp9
 70
     1
102
RTVSPropertyOp10
 70
     1
102
RTVSPropertyOp11
 70
     1
102
RTVSPropertyOp12
 70
     1
102
RTVSPropertyOp13
 70
     1
102
RTVSPropertyOp14
 70
     1
102
RTVSPropertyOp15
 70
     1
102
RTVSPropertyOp16
 70
     1
102
RTVSPropertyOp17
 70
     1
102
RTVSPropertyOp18
 70
     1
102
RTVSPropertyOp19
 70
     1
102
RTVSPropertyOp20
 70
     1
102
RTVSPropertyOp21
 70
     1
102
RTVSPropertyOp22
 70
     1
102
RTVSPropertyOp23
 70
     1
102
RTVSPropertyOp24
 70
     1
102
RTVSPropertyOp25
 70
     1
102
RTVSPropertyOp26
 70
     1
102
RTVSPropertyOp27
 70
     1
  0
ENDSEC
  0
EOF
