  0
SECTION
  2
HEADER
  9
$ACADVER
  1
AC1015
  9
$ACADMAINTVER
 70
     6
  9
$DWGCODEPAGE
  3
ANSI_1252
  9
$INSBASE
 10
0.0
 20
0.0
 30
0.0
  9
$EXTMIN
 10
0.0
 20
0.0
 30
0.0
  9
$EXTMAX
 10
2500.0
 20
2000.0
 30
0.0
  9
$LIMMIN
 10
0.0
 20
0.0
  9
$LIMMAX
 10
2500.0
 20
2000.0
  9
$ORTHOMODE
 70
     0
  9
$REGENMODE
 70
     1
  9
$FILLMODE
 70
     1
  9
$QTEXTMODE
 70
     0
  9
$MIRRTEXT
 70
     1
  9
$LTSCALE
 40
1.0
  9
$ATTMODE
 70
     1
  9
$TEXTSIZE
 40
3.5
  9
$TRACEWID
 40
1.0
  9
$TEXTSTYLE
  7
Standard
  9
$CLAYER
  8
0
  9
$CELTYPE
  6
ByLayer
  9
$CECOLOR
 62
   256
  9
$CELTSCALE
 40
1.0
  9
$DISPSILH
 70
     0
  9
$DIMSCALE
 40
1.0
  9
$DIMASZ
 40
3.302
  9
$DIMEXO
 40
1.0
  9
$DIMDLI
 40
3.75
  9
$DIMRND
 40
0.0
  9
$DIMDLE
 40
0.0
  9
$DIMEXE
 40
1.0
  9
$DIMTP
 40
0.0
  9
$DIMTM
 40
0.0
  9
$DIMTXT
 40
3.5
  9
$DIMCEN
 40
2.5
  9
$DIMTSZ
 40
0.0
  9
$DIMTOL
 70
     0
  9
$DIMLIM
 70
     0
  9
$DIMTIH
 70
     1
  9
$DIMTOH
 70
     1
  9
$DIMSE1
 70
     0
  9
$DIMSE2
 70
     0
  9
$DIMTAD
 70
     1
  9
$DIMZIN
 70
     0
  9
$DIMBLK
  1

  9
$DIMASO
 70
     1
  9
$DIMSHO
 70
     1
  9
$DIMPOST
  1

  9
$DIMAPOST
  1

  9
$DIMALT
 70
     0
  9
$DIMALTD
 70
     3
  9
$DIMALTF
 40
0.0393700787
  9
$DIMLFAC
 40
2.0
  9
$DIMTOFL
 70
     1
  9
$DIMTVP
 40
0.0
  9
$DIMTIX
 70
     0
  9
$DIMSOXD
 70
     0
  9
$DIMSAH
 70
     0
  9
$DIMBLK1
  1

  9
$DIMBLK2
  1

  9
$DIMSTYLE
  2
ISO-25
  9
$DIMCLRD
 70
     0
  9
$DIMCLRE
 70
     0
  9
$DIMCLRT
 70
     0
  9
$DIMTFAC
 40
1.0
  9
$DIMGAP
 40
1.524
  9
$DIMJUST
 70
     0
  9
$DIMSD1
 70
     0
  9
$DIMSD2
 70
     0
  9
$DIMTOLJ
 70
     0
  9
$DIMTZIN
 70
     0
  9
$DIMALTZ
 70
     0
  9
$DIMALTTZ
 70
     0
  9
$DIMUPT
 70
     0
  9
$DIMDEC
 70
     2
  9
$DIMTDEC
 70
     2
  9
$DIMALTU
 70
     2
  9
$DIMALTTD
 70
     3
  9
$DIMTXSTY
  7
Standard
  9
$DIMAUNIT
 70
     0
  9
$DIMADEC
 70
     2
  9
$DIMALTRND
 40
0.0
  9
$DIMAZIN
 70
     0
  9
$DIMDSEP
 70
    44
  9
$DIMATFIT
 70
     3
  9
$DIMFRAC
 70
     0
  9
$DIMLDRBLK
  1

  9
$DIMLUNIT
 70
     2
  9
$DIMLWD
 70
    -2
  9
$DIMLWE
 70
    -2
  9
$DIMTMOVE
 70
     0
  9
$LUNITS
 70
     2
  9
$LUPREC
 70
     2
  9
$SKETCHINC
 40
1.0
  9
$FILLETRAD
 40
10.0
  9
$AUNITS
 70
     0
  9
$AUPREC
 70
     2
  9
$MENU
  1
.
  9
$ELEVATION
 40
0.0
  9
$PELEVATION
 40
0.0
  9
$THICKNESS
 40
0.0
  9
$LIMCHECK
 70
     0
  9
$CHAMFERA
 40
0.0
  9
$CHAMFERB
 40
0.0
  9
$CHAMFERC
 40
0.0
  9
$CHAMFERD
 40
0.0
  9
$SKPOLY
 70
     0
  9
$TDCREATE
 40
2457077.691515382
  9
$TDUCREATE
 40
2457077.691515382
  9
$TDUPDATE
 40
2457077.691515613
  9
$TDUUPDATE
 40
2457077.691515613
  9
$TDINDWG
 40
0.0000000116
  9
$TDUSRTIMER
 40
0.0000000116
  9
$USRTIMER
 70
     1
  9
$ANGBASE
 50
0.0
  9
$ANGDIR
 70
     0
  9
$PDMODE
 70
     0
  9
$PDSIZE
 40
-1.0
  9
$PLINEWID
 40
0.0
  9
$SPLFRAME
 70
     0
  9
$SPLINETYPE
 70
     6
  9
$SPLINESEGS
 70
     8
  9
$HANDSEED
  5
2A1
  9
$SURFTAB1
 70
     6
  9
$SURFTAB2
 70
     6
  9
$SURFTYPE
 70
     6
  9
$SURFU
 70
     6
  9
$SURFV
 70
     6
  9
$UCSBASE
  2

  9
$UCSNAME
  2

  9
$UCSORG
 10
0.0
 20
0.0
 30
0.0
  9
$UCSXDIR
 10
1.0
 20
0.0
 30
0.0
  9
$UCSYDIR
 10
0.0
 20
1.0
 30
0.0
  9
$UCSORTHOREF
  2

  9
$UCSORTHOVIEW
 70
     0
  9
$UCSORGTOP
 10
0.0
 20
0.0
 30
0.0
  9
$UCSORGBOTTOM
 10
0.0
 20
0.0
 30
0.0
  9
$UCSORGLEFT
 10
0.0
 20
0.0
 30
0.0
  9
$UCSORGRIGHT
 10
0.0
 20
0.0
 30
0.0
  9
$UCSORGFRONT
 10
0.0
 20
0.0
 30
0.0
  9
$UCSORGBACK
 10
0.0
 20
0.0
 30
0.0
  9
$PUCSBASE
  2

  9
$PUCSNAME
  2

  9
$PUCSORG
 10
0.0
 20
0.0
 30
0.0
  9
$PUCSXDIR
 10
1.0
 20
0.0
 30
0.0
  9
$PUCSYDIR
 10
0.0
 20
1.0
 30
0.0
  9
$PUCSORTHOREF
  2

  9
$PUCSORTHOVIEW
 70
     0
  9
$PUCSORGTOP
 10
0.0
 20
0.0
 30
0.0
  9
$PUCSORGBOTTOM
 10
0.0
 20
0.0
 30
0.0
  9
$PUCSORGLEFT
 10
0.0
 20
0.0
 30
0.0
  9
$PUCSORGRIGHT
 10
0.0
 20
0.0
 30
0.0
  9
$PUCSORGFRONT
 10
0.0
 20
0.0
 30
0.0
  9
$PUCSORGBACK
 10
0.0
 20
0.0
 30
0.0
  9
$USERI1
 70
     0
  9
$USERI2
 70
     0
  9
$USERI3
 70
     0
  9
$USERI4
 70
     0
  9
$USERI5
 70
     0
  9
$USERR1
 40
0.0
  9
$USERR2
 40
0.0
  9
$USERR3
 40
0.0
  9
$USERR4
 40
0.0
  9
$USERR5
 40
0.0
  9
$WORLDVIEW
 70
     1
  9
$SHADEDGE
 70
     3
  9
$SHADEDIF
 70
    70
  9
$TILEMODE
 70
     1
  9
$MAXACTVP
 70
    64
  9
$PINSBASE
 10
0.0
 20
0.0
 30
0.0
  9
$PLIMCHECK
 70
     0
  9
$PEXTMIN
 10
1.0000000000E+20
 20
1.0000000000E+20
 30
1.0000000000E+20
  9
$PEXTMAX
 10
-1.0000000000E+20
 20
-1.0000000000E+20
 30
-1.0000000000E+20
  9
$PLIMMIN
 10
0.0
 20
0.0
  9
$PLIMMAX
 10
420.0
 20
297.0
  9
$UNITMODE
 70
     0
  9
$VISRETAIN
 70
     1
  9
$PLINEGEN
 70
     0
  9
$PSLTSCALE
 70
     1
  9
$TREEDEPTH
 70
  3020
  9
$CMLSTYLE
  2
Standard
  9
$CMLJUST
 70
     0
  9
$CMLSCALE
 40
20.0
  9
$PROXYGRAPHICS
 70
     1
  9
$MEASUREMENT
 70
     1
  9
$CELWEIGHT
370
    -1
  9
$ENDCAPS
280
     0
  9
$JOINSTYLE
280
     0
  9
$LWDISPLAY
290
     1
  9
$INSUNITS
 70
     4
  9
$HYPERLINKBASE
  1

  9
$STYLESHEET
  1

  9
$XEDIT
290
     1
  9
$CEPSNTYPE
380
     0
  9
$PSTYLEMODE
290
     1
  9
$FINGERPRINTGUID
  2
{A49EA327-A00E-4BBE-BCBD-3C788047CDCF}
  9
$VERSIONGUID
  2
{FAEB1C32-E019-11D5-929B-00C0DF256EC4}
  9
$EXTNAMES
290
     1
  9
$PSVPSCALE
 40
0.0
  9
$OLESTARTUP
290
     0
  0
ENDSEC
  0
SECTION
  2
CLASSES
  0
CLASS
  1
ACDBDICTIONARYWDFLT
  2
AcDbDictionaryWithDefault
  3
ObjectDBX Classes
 90
        0
280
     0
281
     0
  0
CLASS
  1
VISUALSTYLE
  2
AcDbVisualStyle
  3
ObjectDBX Classes
 90
     4095
280
     0
281
     0
  0
CLASS
  1
MATERIAL
  2
AcDbMaterial
  3
ObjectDBX Classes
 90
     1153
280
     0
281
     0
  0
CLASS
  1
SCALE
  2
AcDbScale
  3
ObjectDBX Classes
 90
     1153
280
     0
281
     0
  0
CLASS
  1
SUN
  2
AcDbSun
  3
SCENEOE
 90
     1153
280
     0
281
     0
  0
CLASS
  1
ACDBPLACEHOLDER
  2
AcDbPlaceHolder
  3
ObjectDBX Classes
 90
        0
280
     0
281
     0
  0
CLASS
  1
LAYOUT
  2
AcDbLayout
  3
ObjectDBX Classes
 90
        0
280
     0
281
     0
  0
ENDSEC
  0
SECTION
  2
TABLES
  0
TABLE
  2
VPORT
  5
8
330
0
100
AcDbSymbolTable
 70
     1
  0
VPORT
  5
29
330
8
100
AcDbSymbolTableRecord
100
AcDbViewportTableRecord
  2
*Active
 70
     0
 10
0.0
 20
0.0
 11
1.0
 21
1.0
 12
1250.0
 22
1000.0
 13
0.0
 23
0.0
 14
10.0
 24
10.0
 15
10.0
 25
10.0
 16
0.0
 26
0.0
 36
1.0
 17
0.0
 27
0.0
 37
0.0
 40
2000.0
 41
1.25
 42
50.0
 43
0.0
 44
0.0
 50
0.0
 51
0.0
 71
     0
 72
  2000
 73
     1
 74
     3
 75
     0
 76
     0
 77
     0
 78
     0
281
     0
 65
     1
110
0.0
120
0.0
130
0.0
111
1.0
121
0.0
131
0.0
112
0.0
122
1.0
132
0.0
 79
     0
146
0.0
  0
ENDTAB
  0
TABLE
  2
LTYPE
  5
5
330
0
100
AcDbSymbolTable
 70
     6
  0
LTYPE
  5
14
330
5
100
AcDbSymbolTableRecord
100
AcDbLinetypeTableRecord
  2
ByBlock
 70
     0
  3

 72
    65
 73
     0
 40
0.0
  0
LTYPE
  5
15
330
5
100
AcDbSymbolTableRecord
100
AcDbLinetypeTableRecord
  2
ByLayer
 70
     0
  3

 72
    65
 73
     0
 40
0.0
  0
LTYPE
  5
16
330
5
100
AcDbSymbolTableRecord
100
AcDbLinetypeTableRecord
  2
Continuous
 70
     0
  3
Solid line
 72
    65
 73
     0
 40
0.0
  0
LTYPE
  5
6A
330
5
100
AcDbSymbolTableRecord
100
AcDbLinetypeTableRecord
  2
HIDDEN
 70
     0
  3
Hidden __ __ __ __ __ __ __ __ __ __ __ __ __ __
 72
    65
 73
     2
 40
1.905
 49
1.27
 74
     0
 49
-0.635
 74
     0
  0
LTYPE
  5
6B
330
5
100
AcDbSymbolTableRecord
100
AcDbLinetypeTableRecord
  2
PHANTOM
 70
     0
  3
Phantom ______  __  __  ______  __  __  ______
 72
    65
 73
     6
 40
12.7
 49
6.35
 74
     0
 49
-1.27
 74
     0
 49
1.27
 74
     0
 49
-1.27
 74
     0
 49
1.27
 74
     0
 49
-1.27
 74
     0
  0
LTYPE
  5
6C
330
5
100
AcDbSymbolTableRecord
100
AcDbLinetypeTableRecord
  2
CENTER
 70
     0
  3
Center ____ _ ____ _ ____ _ ____ _ ____ _ ____
 72
    65
 73
     4
 40
10.16
 49
6.35
 74
     0
 49
-1.27
 74
     0
 49
1.27
 74
     0
 49
-1.27
 74
     0
  0
LTYPE
  5
6D
330
5
100
AcDbSymbolTableRecord
100
AcDbLinetypeTableRecord
  2
CENTERX2
 70
     0
  3
Center (2x) ________  __  ________  __  _____
 72
    65
 73
     4
 40
20.32
 49
12.7
 74
     0
 49
-2.54
 74
     0
 49
2.54
 74
     0
 49
-2.54
 74
     0
  0
LTYPE
  5
6E
330
5
100
AcDbSymbolTableRecord
100
AcDbLinetypeTableRecord
  2
DOT2
 70
     0
  3
Dot (.5x) ........................................
 72
    65
 73
     2
 40
0.635
 49
0.0
 74
     0
 49
-0.635
 74
     0
  0
ENDTAB
  0
TABLE
  2
LAYER
  5
2
330
0
100
AcDbSymbolTable
 70
     1
  0
LAYER
  5
10
330
2
100
AcDbSymbolTableRecord
100
AcDbLayerTableRecord
  2
0
 70
     0
 62
     7
  6
Continuous
370
    -3
390
F
  0
ENDTAB
  0
TABLE
  2
STYLE
  5
3
330
0
100
AcDbSymbolTable
 70
     2
  0
STYLE
  5
11
330
3
100
AcDbSymbolTableRecord
100
AcDbTextStyleTableRecord
  2
Standard
 70
     0
 40
0.0
 41
1.0
 50
0.0
 71
     0
 42
3.5
  3
txt
  4

  0
STYLE
  5
6F
330
3
100
AcDbSymbolTableRecord
100
AcDbTextStyleTableRecord
  2
SLDTEXTSTYLE0
 70
     0
 40
0.0
 41
0.7
 50
0.0
 71
     0
 42
3.5
  3
TXT
  4

  0
ENDTAB
  0
TABLE
  2
VIEW
  5
6
330
0
100
AcDbSymbolTable
 70
     0
  0
ENDTAB
  0
TABLE
  2
UCS
  5
7
330
0
100
AcDbSymbolTable
 70
     0
  0
ENDTAB
  0
TABLE
  2
APPID
  5
9
330
0
100
AcDbSymbolTable
 70
     1
  0
APPID
  5
12
330
9
100
AcDbSymbolTableRecord
100
AcDbRegAppTableRecord
  2
ACAD
 70
     0
  0
ENDTAB
  0
TABLE
  2
DIMSTYLE
  5
A
330
0
100
AcDbSymbolTable
 70
     1
100
AcDbDimStyleTable
  0
DIMSTYLE
105
27
330
A
100
AcDbSymbolTableRecord
100
AcDbDimStyleTableRecord
  2
ISO-25
 70
     0
 41
2.5
 42
0.625
 43
3.75
 44
1.25
 73
     0
 74
     0
 77
     1
 78
     8
140
2.5
141
2.5
143
0.0393700787
147
0.625
171
     3
172
     1
178
     0
271
     2
272
     2
274
     3
278
    44
283
     0
284
     8
340
11
  0
ENDTAB
  0
TABLE
  2
BLOCK_RECORD
  5
1
330
0
100
AcDbSymbolTable
 70
     1
  0
BLOCK_RECORD
  5
1F
330
1
100
AcDbSymbolTableRecord
100
AcDbBlockTableRecord
  2
*Model_Space
340
22
  0
BLOCK_RECORD
  5
1B
330
1
100
AcDbSymbolTableRecord
100
AcDbBlockTableRecord
  2
*Paper_Space
340
1E
  0
BLOCK_RECORD
  5
23
330
1
100
AcDbSymbolTableRecord
100
AcDbBlockTableRecord
  2
*Paper_Space0
340
26
  0
ENDTAB
  0
ENDSEC
  0
SECTION
  2
BLOCKS
  0
BLOCK
  5
20
330
1F
100
AcDbEntity
  8
0
100
AcDbBlockBegin
  2
*Model_Space
 70
     0
 10
0.0
 20
0.0
 30
0.0
  3
*Model_Space
  1
*Model_Space
  0
ENDBLK
  5
21
330
1F
100
AcDbEntity
  8
0
100
AcDbBlockEnd
  0
BLOCK
  5
1C
330
1B
100
AcDbEntity
 67
     1
  8
0
100
AcDbBlockBegin
  2
*Paper_Space
 70
     0
 10
0.0
 20
0.0
 30
0.0
  3
*Paper_Space
  1
*Paper_Space
  0
ENDBLK
  5
1D
330
1B
100
AcDbEntity
 67
     1
  8
0
100
AcDbBlockEnd
  0
BLOCK
  5
24
330
23
100
AcDbEntity
  8
0
100
AcDbBlockBegin
  2
*Paper_Space0
 70
     0
 10
0.0
 20
0.0
 30
0.0
  3
*Paper_Space0
  1
*Paper_Space0
  0
ENDBLK
  5
25
330
23
100
AcDbEntity
  8
0
100
AcDbBlockEnd
  0
ENDSEC
  0
SECTION
  2
ENTITIES
  0
MTEXT
  5
70
330
1F
100
AcDbEntity
  8
0
  6
Continuous
 62
     7
370
     0
100
AcDbMText
 10
805.416909477
 20
1877.4496460716
 30
0.0
 40
19.05
 41
0.0
 71
     1
 72
     1
  1
LB 6331 - RUSSBOROUGH BATHROOM CONSOLE WITH LB 7220 - UNDER-MOUNT BASIN
  7
SLDTEXTSTYLE0
 73
     1
 44
1.0
  0
ARC
  5
71
330
1F
100
AcDbEntity
  8
0
  6
Continuous
 62
     7
370
    15
100
AcDbCircle
 10
262.7705749718
 20
181.5732807215
 30
0.0
 40
10.0
100
AcDbArc
 50
90.0
 51
180.0
  0
ARC
  5
72
330
1F
100
AcDbEntity
  8
0
  6
Continuous
 62
     7
370
    15
100
AcDbCircle
 10
347.7705749718
 20
181.5732807215
 30
0.0
 40
10.0
100
AcDbArc
 50
0.0
 51
90.0
  0
ARC
  5
73
330
1F
100
AcDbEntity
  8
0
  6
Continuous
 62
     7
370
    15
100
AcDbCircle
 10
262.7705749718
 20
181.5732807215
 30
0.0
 40
10.00000000000003
100
AcDbArc
 50
180.0
 51
270.0
  0
ARC
  5
74
330
1F
100
AcDbEntity
  8
0
  6
Continuous
 62
     7
370
    15
100
AcDbCircle
 10
347.7705749718
 20
181.5732807215
 30
0.0
 40
10.00000000000003
100
AcDbArc
 50
270.0
 51
0.0
  0
ARC
  5
75
330
1F
100
AcDbEntity
  8
0
  6
Continuous
 62
     7
370
    15
100
AcDbCircle
 10
1312.7705749718
 20
181.5732807215
 30
0.0
 40
10.0
100
AcDbArc
 50
90.0
 51
180.0
  0
ARC
  5
76
330
1F
100
AcDbEntity
  8
0
  6
Continuous
 62
     7
370
    15
100
AcDbCircle
 10
1397.7705749718
 20
181.5732807215
 30
0.0
 40
10.0
100
AcDbArc
 50
0.0
 51
90.0
  0
ARC
  5
77
330
1F
100
AcDbEntity
  8
0
  6
Continuous
 62
     7
370
    15
100
AcDbCircle
 10
1312.7705749718
 20
181.5732807215
 30
0.0
 40
10.0
100
AcDbArc
 50
180.0
 51
270.0
  0
ARC
  5
78
330
1F
100
AcDbEntity
  8
0
  6
Continuous
 62
     7
370
    15
100
AcDbCircle
 10
1397.7705749718
 20
181.5732807215
 30
0.0
 40
10.0
100
AcDbArc
 50
270.0
 51
0.0
  0
ARC
  5
79
330
1F
100
AcDbEntity
  8
0
  6
Continuous
 62
     7
370
    15
100
AcDbCircle
 10
261.4532855483
 20
771.7734597678
 30
0.0
 40
2.000000000000007
100
AcDbArc
 50
100.4800148208
 51
180.8859465938
  0
ARC
  5
7A
330
1F
100
AcDbEntity
  8
0
  6
Continuous
 62
     7
370
    15
100
AcDbCircle
 10
349.0878643953
 20
771.7734597678
 30
0.0
 40
2.000000000000028
100
AcDbArc
 50
359.1140534062
 51
79.5199851792
  0
LINE
  5
7B
330
1F
100
AcDbEntity
  8
0
  6
Continuous
 62
     7
370
    15
100
AcDbLine
 10
259.4535216538
 20
771.7425425347
 30
0.0
 11
268.2132586686
 21
205.277894884
 31
0.0
  0
LINE
  5
7C
330
1F
100
AcDbEntity
  8
0
  6
Continuous
 62
     7
370
    15
100
AcDbLine
 10
342.3278495518
 20
205.277894884
 30
0.0
 11
351.0876163689
 21
771.7425425347
 31
0.0
  0
ARC
  5
7D
330
1F
100
AcDbEntity
  8
0
  6
Continuous
 62
     7
370
    15
100
AcDbCircle
 10
351.2705749718
 20
783.5732807215
 30
0.0
 40
10.00000000000009
100
AcDbArc
 50
180.0
 51
259.5199851792
  0
ARC
  5
7E
330
1F
100
AcDbEntity
  8
0
  6
Continuous
 62
     7
370
    15
100
AcDbCircle
 10
259.2705749718
 20
783.5732807215
 30
0.0
 40
10.00000000000008
100
AcDbArc
 50
280.4800148208
 51
0.0
  0
ARC
  5
7F
330
1F
100
AcDbEntity
  8
0
  6
Continuous
 62
     7
370
    15
100
AcDbCircle
 10
268.2705749718
 20
196.5732807215
 30
0.0
 40
4.999999999999886
100
AcDbArc
 50
180.0
 51
270.0
  0
ARC
  5
80
330
1F
100
AcDbEntity
  8
0
  6
Continuous
 62
     7
370
    15
100
AcDbCircle
 10
342.2705749718
 20
196.5732807215
 30
0.0
 40
5.0
100
AcDbArc
 50
270.0
 51
0.0
  0
ARC
  5
81
330
1F
100
AcDbEntity
  8
0
  6
Continuous
 62
     7
370
    15
100
AcDbCircle
 10
268.2705749718
 20
196.5732807215
 30
0.0
 40
4.99999999999999
100
AcDbArc
 50
120.375770099
 51
180.0
  0
ARC
  5
82
330
1F
100
AcDbEntity
  8
0
  6
Continuous
 62
     7
370
    15
100
AcDbCircle
 10
342.2705749718
 20
196.5732807215
 30
0.0
 40
5.0
100
AcDbArc
 50
0.0
 51
59.624229901
  0
ARC
  5
83
330
1F
100
AcDbEntity
  8
0
  6
Continuous
 62
     7
370
    15
100
AcDbCircle
 10
347.3272646632
 20
205.2005566163
 30
0.0
 40
5.000000000000006
100
AcDbArc
 50
179.1140534061
 51
239.624229901
  0
ARC
  5
84
330
1F
100
AcDbEntity
  8
0
  6
Continuous
 62
     7
370
    15
100
AcDbCircle
 10
263.2138852804
 20
205.2005566163
 30
0.0
 40
4.999999999999977
100
AcDbArc
 50
300.375770099
 51
0.8859465939
  0
ARC
  5
85
330
1F
100
AcDbEntity
  8
0
  6
Continuous
 62
     7
370
    15
100
AcDbCircle
 10
1311.4532855483
 20
771.7734597678
 30
0.0
 40
2.000000000000059
100
AcDbArc
 50
100.4800148208
 51
180.8859465938
  0
ARC
  5
86
330
1F
100
AcDbEntity
  8
0
  6
Continuous
 62
     7
370
    15
100
AcDbCircle
 10
1399.0878643953
 20
771.7734597678
 30
0.0
 40
2.000000000000059
100
AcDbArc
 50
359.1140534062
 51
79.5199851792
  0
LINE
  5
87
330
1F
100
AcDbEntity
  8
0
  6
Continuous
 62
     7
370
    15
100
AcDbLine
 10
1309.4535335747
 20
771.7425425347
 30
0.0
 11
1318.2133003918
 21
205.277894884
 31
0.0
  0
LINE
  5
88
330
1F
100
AcDbEntity
  8
0
  6
Continuous
 62
     7
370
    15
100
AcDbLine
 10
1392.3278912751
 20
205.277894884
 30
0.0
 11
1401.0876282898
 21
771.7425425347
 31
0.0
  0
ARC
  5
89
330
1F
100
AcDbEntity
  8
0
  6
Continuous
 62
     7
370
    15
100
AcDbCircle
 10
1401.2705749718
 20
783.5732807215
 30
0.0
 40
10.00000000000016
100
AcDbArc
 50
180.0
 51
259.5199851792
  0
ARC
  5
8A
330
1F
100
AcDbEntity
  8
0
  6
Continuous
 62
     7
370
    15
100
AcDbCircle
 10
1309.2705749718
 20
783.5732807215
 30
0.0
 40
10.00000000000016
100
AcDbArc
 50
280.4800148208
 51
360.0
  0
ARC
  5
8B
330
1F
100
AcDbEntity
  8
0
  6
Continuous
 62
     7
370
    15
100
AcDbCircle
 10
1318.2705749718
 20
196.5732807215
 30
0.0
 40
4.999999999999886
100
AcDbArc
 50
180.0
 51
270.0
  0
ARC
  5
8C
330
1F
100
AcDbEntity
  8
0
  6
Continuous
 62
     7
370
    15
100
AcDbCircle
 10
1392.2705749718
 20
196.5732807215
 30
0.0
 40
4.999999999999886
100
AcDbArc
 50
270.0
 51
0.0
  0
ARC
  5
8D
330
1F
100
AcDbEntity
  8
0
  6
Continuous
 62
     7
370
    15
100
AcDbCircle
 10
1318.2705749718
 20
196.5732807215
 30
0.0
 40
5.000000000000019
100
AcDbArc
 50
120.375770099
 51
180.0
  0
ARC
  5
8E
330
1F
100
AcDbEntity
  8
0
  6
Continuous
 62
     7
370
    15
100
AcDbCircle
 10
1392.2705749718
 20
196.5732807215
 30
0.0
 40
4.999999999999904
100
AcDbArc
 50
0.0
 51
59.624229901
  0
ARC
  5
8F
330
1F
100
AcDbEntity
  8
0
  6
Continuous
 62
     7
370
    15
100
AcDbCircle
 10
1397.3272646632
 20
205.2005566163
 30
0.0
 40
5.000000000000092
100
AcDbArc
 50
179.1140534061
 51
239.624229901
  0
ARC
  5
90
330
1F
100
AcDbEntity
  8
0
  6
Continuous
 62
     7
370
    15
100
AcDbCircle
 10
1313.2138852804
 20
205.2005566163
 30
0.0
 40
5.000000000000092
100
AcDbArc
 50
300.375770099
 51
0.8859465939
  0
ARC
  5
91
330
1F
100
AcDbEntity
  8
0
  6
Continuous
 62
     7
370
    15
100
AcDbCircle
 10
1302.7705749718
 20
803.5732807215
 30
0.0
 40
10.0
100
AcDbArc
 50
90.0
 51
180.0
  0
ARC
  5
92
330
1F
100
AcDbEntity
  8
0
  6
Continuous
 62
     7
370
    15
100
AcDbCircle
 10
1407.7705749718
 20
803.5732807215
 30
0.0
 40
10.0
100
AcDbArc
 50
0.0
 51
90.0
  0
ARC
  5
93
330
1F
100
AcDbEntity
  8
0
  6
Continuous
 62
     7
370
    15
100
AcDbCircle
 10
1302.7705749718
 20
803.5732807215
 30
0.0
 40
10.0
100
AcDbArc
 50
180.0
 51
270.0
  0
ARC
  5
94
330
1F
100
AcDbEntity
  8
0
  6
Continuous
 62
     7
370
    15
100
AcDbCircle
 10
1407.7705749718
 20
803.5732807215
 30
0.0
 40
10.0
100
AcDbArc
 50
270.0
 51
0.0
  0
ARC
  5
95
330
1F
100
AcDbEntity
  8
0
  6
Continuous
 62
     7
370
    15
100
AcDbCircle
 10
1307.2705749718
 20
788.5732807215
 30
0.0
 40
5.0
100
AcDbArc
 50
180.0
 51
270.0
  0
ARC
  5
96
330
1F
100
AcDbEntity
  8
0
  6
Continuous
 62
     7
370
    15
100
AcDbCircle
 10
1403.2705749718
 20
788.5732807215
 30
0.0
 40
5.0
100
AcDbArc
 50
270.0
 51
0.0
  0
ARC
  5
97
330
1F
100
AcDbEntity
  8
0
  6
Continuous
 62
     7
370
    15
100
AcDbCircle
 10
1307.2705749718
 20
788.5732807215
 30
0.0
 40
5.0
100
AcDbArc
 50
90.0
 51
180.0
  0
ARC
  5
98
330
1F
100
AcDbEntity
  8
0
  6
Continuous
 62
     7
370
    15
100
AcDbCircle
 10
1403.2705749718
 20
788.5732807215
 30
0.0
 40
5.0
100
AcDbArc
 50
0.0
 51
90.0
  0
ARC
  5
99
330
1F
100
AcDbEntity
  8
0
  6
Continuous
 62
     7
370
    15
100
AcDbCircle
 10
252.7705749718
 20
803.5732807215
 30
0.0
 40
10.00000000000003
100
AcDbArc
 50
90.0
 51
180.0
  0
ARC
  5
9A
330
1F
100
AcDbEntity
  8
0
  6
Continuous
 62
     7
370
    15
100
AcDbCircle
 10
357.7705749718
 20
803.5732807215
 30
0.0
 40
10.00000000000006
100
AcDbArc
 50
0.0
 51
90.0
  0
ARC
  5
9B
330
1F
100
AcDbEntity
  8
0
  6
Continuous
 62
     7
370
    15
100
AcDbCircle
 10
252.7705749718
 20
803.5732807215
 30
0.0
 40
10.00000000000003
100
AcDbArc
 50
180.0
 51
270.0
  0
ARC
  5
9C
330
1F
100
AcDbEntity
  8
0
  6
Continuous
 62
     7
370
    15
100
AcDbCircle
 10
357.7705749718
 20
803.5732807215
 30
0.0
 40
10.00000000000006
100
AcDbArc
 50
270.0
 51
0.0
  0
ARC
  5
9D
330
1F
100
AcDbEntity
  8
0
  6
Continuous
 62
     7
370
    15
100
AcDbCircle
 10
257.2705749718
 20
788.5732807215
 30
0.0
 40
5.000000000000114
100
AcDbArc
 50
180.0
 51
270.0
  0
ARC
  5
9E
330
1F
100
AcDbEntity
  8
0
  6
Continuous
 62
     7
370
    15
100
AcDbCircle
 10
353.2705749718
 20
788.5732807215
 30
0.0
 40
5.000000000000114
100
AcDbArc
 50
270.0
 51
0.0
  0
ARC
  5
9F
330
1F
100
AcDbEntity
  8
0
  6
Continuous
 62
     7
370
    15
100
AcDbCircle
 10
257.2705749718
 20
788.5732807215
 30
0.0
 40
5.0
100
AcDbArc
 50
90.0
 51
180.0
  0
ARC
  5
A0
330
1F
100
AcDbEntity
  8
0
  6
Continuous
 62
     7
370
    15
100
AcDbCircle
 10
353.2705749718
 20
788.5732807215
 30
0.0
 40
5.0
100
AcDbArc
 50
0.0
 51
90.0
  0
LINE
  5
A1
330
1F
100
AcDbEntity
  8
0
  6
Continuous
 62
     7
370
    15
100
AcDbLine
 10
240.2706011979
 20
151.5732754763
 30
0.0
 11
240.2706011979
 21
76.5732873973
 31
0.0
  0
LINE
  5
A2
330
1F
100
AcDbEntity
  8
0
  6
Continuous
 62
     7
370
    15
100
AcDbLine
 10
1290.2705833165
 20
151.5732754763
 30
0.0
 11
1290.2705833165
 21
76.5732873973
 31
0.0
  0
LINE
  5
A3
330
1F
100
AcDbEntity
  8
0
  6
Continuous
 62
     7
370
    15
100
AcDbLine
 10
1420.2705487458
 20
151.5732754763
 30
0.0
 11
1420.2705487458
 21
76.5732873973
 31
0.0
  0
LINE
  5
A4
330
1F
100
AcDbEntity
  8
0
  6
Continuous
 62
     7
370
    15
100
AcDbLine
 10
370.2705666272
 20
151.5732754763
 30
0.0
 11
370.2705666272
 21
76.5732873973
 31
0.0
  0
LINE
  5
A5
330
1F
100
AcDbEntity
  8
0
  6
Continuous
 62
     7
370
    15
100
AcDbLine
 10
1290.2705833165
 20
76.5732873973
 30
0.0
 11
1420.2705487458
 21
76.5732873973
 31
0.0
  0
LINE
  5
A6
330
1F
100
AcDbEntity
  8
0
  6
Continuous
 62
     7
370
    15
100
AcDbLine
 10
1290.2705833165
 20
151.5732754763
 30
0.0
 11
1420.2705487458
 21
151.5732754763
 31
0.0
  0
LINE
  5
A7
330
1F
100
AcDbEntity
  8
0
  6
Continuous
 62
     7
370
    15
100
AcDbLine
 10
240.2706011979
 20
151.5732754763
 30
0.0
 11
370.2705666272
 21
151.5732754763
 31
0.0
  0
LINE
  5
A8
330
1F
100
AcDbEntity
  8
0
  6
Continuous
 62
     7
370
    15
100
AcDbLine
 10
240.2706011979
 20
76.5732873973
 30
0.0
 11
370.2705666272
 21
76.5732873973
 31
0.0
  0
ARC
  5
A9
330
1F
100
AcDbEntity
  8
0
  6
Continuous
 62
     7
370
    15
100
AcDbCircle
 10
240.2705749718
 20
161.5732807215
 30
0.0
 40
10.00000000000003
100
AcDbArc
 50
180.0
 51
270.0
  0
ARC
  5
AA
330
1F
100
AcDbEntity
  8
0
  6
Continuous
 62
     7
370
    15
100
AcDbCircle
 10
370.2705749718
 20
161.5732807215
 30
0.0
 40
10.00000000000003
100
AcDbArc
 50
270.0
 51
0.0
  0
ARC
  5
AB
330
1F
100
AcDbEntity
  8
0
  6
Continuous
 62
     7
370
    15
100
AcDbCircle
 10
240.2705749718
 20
161.5732807215
 30
0.0
 40
10.0
100
AcDbArc
 50
90.0
 51
180.0
  0
LINE
  5
AC
330
1F
100
AcDbEntity
  8
0
  6
Continuous
 62
     7
370
    15
100
AcDbLine
 10
240.2706011979
 20
171.5732564028
 30
0.0
 11
370.2705666272
 21
171.5732564028
 31
0.0
  0
ARC
  5
AD
330
1F
100
AcDbEntity
  8
0
  6
Continuous
 62
     7
370
    15
100
AcDbCircle
 10
370.2705749718
 20
161.5732807215
 30
0.0
 40
10.0
100
AcDbArc
 50
0.0
 51
90.0
  0
ARC
  5
AE
330
1F
100
AcDbEntity
  8
0
  6
Continuous
 62
     7
370
    15
100
AcDbCircle
 10
1290.2705749718
 20
161.5732807215
 30
0.0
 40
10.0
100
AcDbArc
 50
90.0
 51
180.0
  0
LINE
  5
AF
330
1F
100
AcDbEntity
  8
0
  6
Continuous
 62
     7
370
    15
100
AcDbLine
 10
1290.2705833165
 20
171.5732564028
 30
0.0
 11
1420.2705487458
 21
171.5732564028
 31
0.0
  0
ARC
  5
B0
330
1F
100
AcDbEntity
  8
0
  6
Continuous
 62
     7
370
    15
100
AcDbCircle
 10
1420.2705749718
 20
161.5732807215
 30
0.0
 40
10.0
100
AcDbArc
 50
0.0
 51
90.0
  0
ARC
  5
B1
330
1F
100
AcDbEntity
  8
0
  6
Continuous
 62
     7
370
    15
100
AcDbCircle
 10
1290.2705749718
 20
161.5732807215
 30
0.0
 40
10.0
100
AcDbArc
 50
180.0
 51
270.0
  0
ARC
  5
B2
330
1F
100
AcDbEntity
  8
0
  6
Continuous
 62
     7
370
    15
100
AcDbCircle
 10
1420.2705749718
 20
161.5732807215
 30
0.0
 40
10.0
100
AcDbArc
 50
270.0
 51
0.0
  0
ARC
  5
B3
330
1F
100
AcDbEntity
  8
0
  6
Continuous
 62
     7
370
    15
100
AcDbCircle
 10
359.2705749718
 20
190.5732807215
 30
0.0
 40
1.0
100
AcDbArc
 50
0.0
 51
90.0
  0
LINE
  5
B4
330
1F
100
AcDbEntity
  8
0
  6
Continuous
 62
     7
370
    15
100
AcDbLine
 10
251.2705787865
 20
191.573296934
 30
0.0
 11
262.7705797402
 21
191.573296934
 31
0.0
  0
LINE
  5
B5
330
1F
100
AcDbEntity
  8
0
  6
Continuous
 62
     7
370
    15
100
AcDbLine
 10
347.7705880848
 20
191.573296934
 30
0.0
 11
359.2705890385
 21
191.573296934
 31
0.0
  0
ARC
  5
B6
330
1F
100
AcDbEntity
  8
0
  6
Continuous
 62
     7
370
    15
100
AcDbCircle
 10
251.2705749718
 20
190.5732807215
 30
0.0
 40
1.0
100
AcDbArc
 50
90.0
 51
180.0
  0
ARC
  5
B7
330
1F
100
AcDbEntity
  8
0
  6
Continuous
 62
     7
370
    15
100
AcDbCircle
 10
251.2705749718
 20
172.5732807215
 30
0.0
 40
1.0
100
AcDbArc
 50
180.0
 51
270.0
  0
LINE
  5
B8
330
1F
100
AcDbEntity
  8
0
  6
Continuous
 62
     7
370
    15
100
AcDbLine
 10
250.2705916611
 20
172.5733031329
 30
0.0
 11
250.2705916611
 21
190.5733098086
 31
0.0
  0
LINE
  5
B9
330
1F
100
AcDbEntity
  8
0
  6
Continuous
 62
     7
370
    15
100
AcDbLine
 10
360.2705761639
 20
190.5733098086
 30
0.0
 11
360.2705761639
 21
172.5733031329
 31
0.0
  0
ARC
  5
BA
330
1F
100
AcDbEntity
  8
0
  6
Continuous
 62
     7
370
    15
100
AcDbCircle
 10
359.2705749718
 20
172.5732807215
 30
0.0
 40
1.0
100
AcDbArc
 50
270.0
 51
0.0
  0
ARC
  5
BB
330
1F
100
AcDbEntity
  8
0
  6
Continuous
 62
     7
370
    15
100
AcDbCircle
 10
351.2705749718
 20
192.5732807215
 30
0.0
 40
1.0
100
AcDbArc
 50
180.0
 51
270.0
  0
ARC
  5
BC
330
1F
100
AcDbEntity
  8
0
  6
Continuous
 62
     7
370
    15
100
AcDbCircle
 10
259.2705749718
 20
192.5732807215
 30
0.0
 40
1.0
100
AcDbArc
 50
270.0
 51
0.0
  0
LINE
  5
BD
330
1F
100
AcDbEntity
  8
0
  6
Continuous
 62
     7
370
    15
100
AcDbLine
 10
268.2705983368
 20
783.5732747611
 30
0.0
 11
268.2705983368
 21
779.2143870886
 31
0.0
  0
LINE
  5
BE
330
1F
100
AcDbEntity
  8
0
  6
Continuous
 62
     7
370
    15
100
AcDbLine
 10
342.2705694882
 20
779.2143870886
 30
0.0
 11
342.2705694882
 21
783.5732747611
 31
0.0
  0
LINE
  5
BF
330
1F
100
AcDbEntity
  8
0
  6
Continuous
 62
     7
370
    15
100
AcDbLine
 10
350.2705857007
 20
783.5732747611
 30
0.0
 11
350.2705857007
 21
773.3862747248
 31
0.0
  0
LINE
  5
C0
330
1F
100
AcDbEntity
  8
0
  6
Continuous
 62
     7
370
    15
100
AcDbLine
 10
350.2705857007
 20
718.9066161212
 30
0.0
 11
350.2705857007
 21
192.5732840594
 31
0.0
  0
LINE
  5
C1
330
1F
100
AcDbEntity
  8
0
  6
Continuous
 62
     7
370
    15
100
AcDbLine
 10
260.2705821244
 20
192.5732840594
 30
0.0
 11
260.2705821244
 21
718.9066161212
 31
0.0
  0
LINE
  5
C2
330
1F
100
AcDbEntity
  8
0
  6
Continuous
 62
     7
370
    15
100
AcDbLine
 10
260.2705821244
 20
773.3862747248
 30
0.0
 11
260.2705821244
 21
783.5732747611
 31
0.0
  0
ARC
  5
C3
330
1F
100
AcDbEntity
  8
0
  6
Continuous
 62
     7
370
    15
100
AcDbCircle
 10
1409.2705749718
 20
172.5732807215
 30
0.0
 40
1.000000000000227
100
AcDbArc
 50
270.0
 51
0.0
  0
LINE
  5
C4
330
1F
100
AcDbEntity
  8
0
  6
Continuous
 62
     7
370
    15
100
AcDbLine
 10
1300.2705737797
 20
190.5733098086
 30
0.0
 11
1300.2705737797
 21
172.5733031329
 31
0.0
  0
ARC
  5
C5
330
1F
100
AcDbEntity
  8
0
  6
Continuous
 62
     7
370
    15
100
AcDbCircle
 10
1409.2705749718
 20
190.5732807215
 30
0.0
 40
1.0
100
AcDbArc
 50
0.0
 51
90.0
  0
LINE
  5
C6
330
1F
100
AcDbEntity
  8
0
  6
Continuous
 62
     7
370
    15
100
AcDbLine
 10
1410.2705582825
 20
172.5733031329
 30
0.0
 11
1410.2705582825
 21
190.5733098086
 31
0.0
  0
ARC
  5
C7
330
1F
100
AcDbEntity
  8
0
  6
Continuous
 62
     7
370
    15
100
AcDbCircle
 10
1301.2705749718
 20
190.5732807215
 30
0.0
 40
1.0
100
AcDbArc
 50
90.0
 51
180.0
  0
LINE
  5
C8
330
1F
100
AcDbEntity
  8
0
  6
Continuous
 62
     7
370
    15
100
AcDbLine
 10
1409.2705711571
 20
191.573296934
 30
0.0
 11
1397.7705702034
 21
191.573296934
 31
0.0
  0
LINE
  5
C9
330
1F
100
AcDbEntity
  8
0
  6
Continuous
 62
     7
370
    15
100
AcDbLine
 10
1312.7705618588
 20
191.573296934
 30
0.0
 11
1301.2705609051
 21
191.573296934
 31
0.0
  0
ARC
  5
CA
330
1F
100
AcDbEntity
  8
0
  6
Continuous
 62
     7
370
    15
100
AcDbCircle
 10
1301.2705749718
 20
172.5732807215
 30
0.0
 40
1.000000000000227
100
AcDbArc
 50
180.0
 51
270.0
  0
ARC
  5
CB
330
1F
100
AcDbEntity
  8
0
  6
Continuous
 62
     7
370
    15
100
AcDbCircle
 10
1309.2705749718
 20
192.5732807215
 30
0.0
 40
1.0
100
AcDbArc
 50
270.0
 51
0.0
  0
ARC
  5
CC
330
1F
100
AcDbEntity
  8
0
  6
Continuous
 62
     7
370
    15
100
AcDbCircle
 10
1401.2705749718
 20
192.5732807215
 30
0.0
 40
1.0
100
AcDbArc
 50
180.0
 51
270.0
  0
LINE
  5
CD
330
1F
100
AcDbEntity
  8
0
  6
Continuous
 62
     7
370
    15
100
AcDbLine
 10
1392.2705516068
 20
783.5732747611
 30
0.0
 11
1392.2705516068
 21
779.2143870886
 31
0.0
  0
LINE
  5
CE
330
1F
100
AcDbEntity
  8
0
  6
Continuous
 62
     7
370
    15
100
AcDbLine
 10
1318.2705804554
 20
779.2143870886
 30
0.0
 11
1318.2705804554
 21
783.5732747611
 31
0.0
  0
LINE
  5
CF
330
1F
100
AcDbEntity
  8
0
  6
Continuous
 62
     7
370
    15
100
AcDbLine
 10
1310.270564243
 20
783.5732747611
 30
0.0
 11
1310.270564243
 21
773.3862747248
 31
0.0
  0
LINE
  5
D0
330
1F
100
AcDbEntity
  8
0
  6
Continuous
 62
     7
370
    15
100
AcDbLine
 10
1310.270564243
 20
718.9066161212
 30
0.0
 11
1310.270564243
 21
192.5732840594
 31
0.0
  0
LINE
  5
D1
330
1F
100
AcDbEntity
  8
0
  6
Continuous
 62
     7
370
    15
100
AcDbLine
 10
1400.2705678193
 20
192.5732840594
 30
0.0
 11
1400.2705678193
 21
718.9066161212
 31
0.0
  0
LINE
  5
D2
330
1F
100
AcDbEntity
  8
0
  6
Continuous
 62
     7
370
    15
100
AcDbLine
 10
1400.2705678193
 20
773.3862747248
 30
0.0
 11
1400.2705678193
 21
783.5732747611
 31
0.0
  0
LINE
  5
D3
330
1F
100
AcDbEntity
  8
0
  6
Continuous
 62
     7
370
    15
100
AcDbLine
 10
305.2705988137
 20
191.573296934
 30
0.0
 11
347.7705880848
 21
191.573296934
 31
0.0
  0
LINE
  5
D4
330
1F
100
AcDbEntity
  8
0
  6
Continuous
 62
     7
370
    15
100
AcDbLine
 10
262.7705797402
 20
191.573296934
 30
0.0
 11
305.2705988137
 21
191.573296934
 31
0.0
  0
LINE
  5
D5
330
1F
100
AcDbEntity
  8
0
  6
Continuous
 62
     7
370
    15
100
AcDbLine
 10
1355.27055113
 20
191.573296934
 30
0.0
 11
1397.7705702034
 21
191.573296934
 31
0.0
  0
LINE
  5
D6
330
1F
100
AcDbEntity
  8
0
  6
Continuous
 62
     7
370
    15
100
AcDbLine
 10
1312.7705618588
 20
191.573296934
 30
0.0
 11
1355.27055113
 21
191.573296934
 31
0.0
  0
LINE
  5
D7
330
1F
100
AcDbEntity
  8
0
  6
Continuous
 62
     7
370
    15
100
AcDbLine
 10
1355.27055113
 20
813.5732834037
 30
0.0
 11
1407.7705606667
 21
813.5732834037
 31
0.0
  0
LINE
  5
D8
330
1F
100
AcDbEntity
  8
0
  6
Continuous
 62
     7
370
    15
100
AcDbLine
 10
1334.0043887345
 20
813.5732834037
 30
0.0
 11
1355.27055113
 21
813.5732834037
 31
0.0
  0
LINE
  5
D9
330
1F
100
AcDbEntity
  8
0
  6
Continuous
 62
     7
370
    15
100
AcDbLine
 10
1355.27055113
 20
793.5732801255
 30
0.0
 11
1302.7705713955
 21
793.5732801255
 31
0.0
  0
LINE
  5
DA
330
1F
100
AcDbEntity
  8
0
  6
Continuous
 62
     7
370
    15
100
AcDbLine
 10
1407.7705606667
 20
793.5732801255
 30
0.0
 11
1355.27055113
 21
793.5732801255
 31
0.0
  0
LINE
  5
DB
330
1F
100
AcDbEntity
  8
0
  6
Continuous
 62
     7
370
    15
100
AcDbLine
 10
1355.27055113
 20
783.5732747611
 30
0.0
 11
1307.2705730645
 21
783.5732747611
 31
0.0
  0
LINE
  5
DC
330
1F
100
AcDbEntity
  8
0
  6
Continuous
 62
     7
370
    15
100
AcDbLine
 10
1403.2705888001
 20
783.5732747611
 30
0.0
 11
1355.27055113
 21
783.5732747611
 31
0.0
  0
LINE
  5
DD
330
1F
100
AcDbEntity
  8
0
  6
Continuous
 62
     7
370
    15
100
AcDbLine
 10
305.2705988137
 20
813.5732834037
 30
0.0
 11
326.5367612092
 21
813.5732834037
 31
0.0
  0
LINE
  5
DE
330
1F
100
AcDbEntity
  8
0
  6
Continuous
 62
     7
370
    15
100
AcDbLine
 10
252.7705892769
 20
813.5732834037
 30
0.0
 11
305.2705988137
 21
813.5732834037
 31
0.0
  0
LINE
  5
DF
330
1F
100
AcDbEntity
  8
0
  6
Continuous
 62
     7
370
    15
100
AcDbLine
 10
305.2705988137
 20
793.5732801255
 30
0.0
 11
252.7705892769
 21
793.5732801255
 31
0.0
  0
LINE
  5
E0
330
1F
100
AcDbEntity
  8
0
  6
Continuous
 62
     7
370
    15
100
AcDbLine
 10
357.7705785481
 20
793.5732801255
 30
0.0
 11
305.2705988137
 21
793.5732801255
 31
0.0
  0
LINE
  5
E1
330
1F
100
AcDbEntity
  8
0
  6
Continuous
 62
     7
370
    15
100
AcDbLine
 10
305.2705988137
 20
783.5732747611
 30
0.0
 11
257.2705611435
 21
783.5732747611
 31
0.0
  0
LINE
  5
E2
330
1F
100
AcDbEntity
  8
0
  6
Continuous
 62
     7
370
    15
100
AcDbLine
 10
353.2705768792
 20
783.5732747611
 30
0.0
 11
305.2705988137
 21
783.5732747611
 31
0.0
  0
LINE
  5
E3
330
1F
100
AcDbEntity
  8
0
  6
Continuous
 62
     7
370
    15
100
AcDbLine
 10
1310.270564243
 20
813.5732834037
 30
0.0
 11
350.2705857007
 21
813.5732834037
 31
0.0
  0
LINE
  5
E4
330
1F
100
AcDbEntity
  8
0
  6
Continuous
 62
     7
370
    15
100
AcDbLine
 10
1295.2705785481
 20
831.5732826289
 30
0.0
 11
1295.2705785481
 21
918.3732804652
 31
0.0
  0
LWPOLYLINE
  5
E5
330
1F
100
AcDbEntity
  8
0
  6
Continuous
 62
     7
370
    15
100
AcDbPolyline
 90
        9
 70
   128
 43
0.0
 10
1295.7705721108
 20
918.8732805472
 10
1295.6730291096
 20
918.7757356834
 10
1295.5792412011
 20
918.6819393929
 10
1295.4927846638
 20
918.5954958942
 10
1295.4170271603
 20
918.5197272148
 10
1295.3548297135
 20
918.4575456005
 10
1295.3086361138
 20
918.4113408249
 10
1295.2801748959
 20
918.3828879889
 10
1295.2705785481
 20
918.3732804652
  0
LWPOLYLINE
  5
E6
330
1F
100
AcDbEntity
  8
0
  6
Continuous
 62
     7
370
    15
100
AcDbPolyline
 90
        9
 70
   128
 43
0.0
 10
1295.2705785481
 20
831.5732826289
 10
1295.2801748959
 20
831.5636713799
 10
1295.3086361138
 20
831.5352176126
 10
1295.3548297135
 20
831.4890165623
 10
1295.4170271603
 20
831.4268340167
 10
1295.4927846638
 20
831.3510690626
 10
1295.5792412011
 20
831.2646199759
 10
1295.6730291096
 20
831.1708246168
 10
1295.7705721108
 20
831.0732816156
  0
LINE
  5
E7
330
1F
100
AcDbEntity
  8
0
  6
Continuous
 62
     7
370
    15
100
AcDbLine
 10
1295.2705785481
 20
918.3732804652
 30
0.0
 11
365.2705713955
 21
918.3732804652
 31
0.0
  0
LWPOLYLINE
  5
E8
330
1F
100
AcDbEntity
  8
0
  6
Continuous
 62
     7
370
    15
100
AcDbPolyline
 90
        9
 70
   128
 43
0.0
 10
364.7705778328
 20
918.8732805472
 10
364.868120834
 20
918.7757356834
 10
364.9619087426
 20
918.6819393929
 10
365.0483652798
 20
918.5954958942
 10
365.1241227833
 20
918.5197272148
 10
365.1863202301
 20
918.4575456005
 10
365.2325138298
 20
918.4113408249
 10
365.2609750477
 20
918.3828879889
 10
365.2705713955
 20
918.3732804652
  0
LINE
  5
E9
330
1F
100
AcDbEntity
  8
0
  6
Continuous
 62
     7
370
    15
100
AcDbLine
 10
365.2705713955
 20
831.5732826289
 30
0.0
 11
1295.2705785481
 21
831.5732826289
 31
0.0
  0
LWPOLYLINE
  5
EA
330
1F
100
AcDbEntity
  8
0
  6
Continuous
 62
     7
370
    15
100
AcDbPolyline
 90
        9
 70
   128
 43
0.0
 10
365.2705713955
 20
831.5732826289
 10
365.2609750477
 20
831.5636713799
 10
365.2325138298
 20
831.5352176126
 10
365.1863202301
 20
831.4890165623
 10
365.1241227833
 20
831.4268340167
 10
365.0483652798
 20
831.3510690626
 10
364.9619087426
 20
831.2646199759
 10
364.868120834
 20
831.1708246168
 10
364.7705778328
 20
831.0732816156
  0
LINE
  5
EB
330
1F
100
AcDbEntity
  8
0
  6
Continuous
 62
     7
370
    15
100
AcDbLine
 10
365.2705713955
 20
918.3732804652
 30
0.0
 11
365.2705713955
 21
831.5732826289
 31
0.0
  0
LWPOLYLINE
  5
EC
330
1F
100
AcDbEntity
  8
0
  6
Continuous
 62
     7
370
    15
100
AcDbPolyline
 90
        9
 70
   128
 43
0.0
 10
1295.2705785481
 20
918.3732804652
 10
1295.2609822003
 20
918.3636729416
 10
1295.2325209824
 20
918.3352201056
 10
1295.1862975804
 20
918.28901533
 10
1295.1241299359
 20
918.2268337157
 10
1295.0483724324
 20
918.1510659676
 10
1294.9619158951
 20
918.0646224689
 10
1294.8681279866
 20
917.9708261784
 10
1294.7705849854
 20
917.8732813146
  0
LWPOLYLINE
  5
ED
330
1F
100
AcDbEntity
  8
0
  6
Continuous
 62
     7
370
    15
100
AcDbPolyline
 90
        9
 70
   128
 43
0.0
 10
1294.7705849854
 20
832.0732836422
 10
1294.8681279866
 20
831.9757331904
 10
1294.9619158951
 20
831.8819378313
 10
1295.0483724324
 20
831.7954961952
 10
1295.1241299359
 20
831.7197237905
 10
1295.1862975804
 20
831.6575486954
 10
1295.2325209824
 20
831.6113401946
 10
1295.2609822003
 20
831.5828864273
 10
1295.2705785481
 20
831.5732826289
  0
LWPOLYLINE
  5
EE
330
1F
100
AcDbEntity
  8
0
  6
Continuous
 62
     7
370
    15
100
AcDbPolyline
 90
        9
 70
   128
 43
0.0
 10
365.2705713955
 20
918.3732804652
 10
365.2801677433
 20
918.3636729416
 10
365.3086289612
 20
918.3352201056
 10
365.3548523632
 20
918.28901533
 10
365.4170200077
 20
918.2268337157
 10
365.4927775113
 20
918.1510659676
 10
365.5792340485
 20
918.0646224689
 10
365.6730219571
 20
917.9708261784
 10
365.7705649582
 20
917.8732813146
  0
LWPOLYLINE
  5
EF
330
1F
100
AcDbEntity
  8
0
  6
Continuous
 62
     7
370
    15
100
AcDbPolyline
 90
        9
 70
   128
 43
0.0
 10
365.7705649582
 20
832.0732836422
 10
365.6730219571
 20
831.9757331904
 10
365.5792340485
 20
831.8819378313
 10
365.4927775113
 20
831.7954961952
 10
365.4170200077
 20
831.7197237905
 10
365.3548523632
 20
831.6575486954
 10
365.3086289612
 20
831.6113401946
 10
365.2801677433
 20
831.5828864273
 10
365.2705713955
 20
831.5732826289
  0
LINE
  5
F0
330
1F
100
AcDbEntity
  8
0
  6
Continuous
 62
     7
370
    15
100
AcDbLine
 10
1334.0043887345
 20
813.5732834037
 30
0.0
 11
1311.2705811707
 21
813.5732834037
 31
0.0
  0
LINE
  5
F1
330
1F
100
AcDbEntity
  8
0
  6
Continuous
 62
     7
370
    15
100
AcDbLine
 10
1403.2705888001
 20
813.5732834037
 30
0.0
 11
1403.2705888001
 21
933.5732807215
 31
0.0
  0
LINE
  5
F2
330
1F
100
AcDbEntity
  8
0
  6
Continuous
 62
     7
370
    15
100
AcDbLine
 10
1310.270564243
 20
813.5732834037
 30
0.0
 11
1310.270564243
 21
933.5732807215
 31
0.0
  0
LINE
  5
F3
330
1F
100
AcDbEntity
  8
0
  6
Continuous
 62
     7
370
    15
100
AcDbLine
 10
1311.2705811707
 20
813.5732834037
 30
0.0
 11
1310.270564243
 21
813.5732834037
 31
0.0
  0
LINE
  5
F4
330
1F
100
AcDbEntity
  8
0
  6
Continuous
 62
     7
370
    15
100
AcDbLine
 10
257.2705611435
 20
813.5732834037
 30
0.0
 11
257.2705611435
 21
933.5732807215
 31
0.0
  0
LINE
  5
F5
330
1F
100
AcDbEntity
  8
0
  6
Continuous
 62
     7
370
    15
100
AcDbLine
 10
350.2705857007
 20
933.5732807215
 30
0.0
 11
350.2705857007
 21
813.5732834037
 31
0.0
  0
LINE
  5
F6
330
1F
100
AcDbEntity
  8
0
  6
Continuous
 62
     7
370
    15
100
AcDbLine
 10
349.2705687729
 20
813.5732834037
 30
0.0
 11
350.2705857007
 21
813.5732834037
 31
0.0
  0
LINE
  5
F7
330
1F
100
AcDbEntity
  8
0
  6
Continuous
 62
     7
370
    15
100
AcDbLine
 10
326.5367612092
 20
813.5732834037
 30
0.0
 11
349.2705687729
 21
813.5732834037
 31
0.0
  0
LINE
  5
F8
330
1F
100
AcDbEntity
  8
0
  6
Continuous
 62
     7
370
    15
100
AcDbLine
 10
1355.27055113
 20
933.5732807215
 30
0.0
 11
305.2705988137
 21
933.5732807215
 31
0.0
  0
LINE
  5
F9
330
1F
100
AcDbEntity
  8
0
  6
Continuous
 62
     7
370
    15
100
AcDbLine
 10
1418.270574495
 20
933.5732807215
 30
0.0
 11
1355.27055113
 21
933.5732807215
 31
0.0
  0
ARC
  5
FA
330
1F
100
AcDbEntity
  8
0
  6
Continuous
 62
     7
370
    15
100
AcDbCircle
 10
1418.2705749718
 20
945.5732807215
 30
0.0
 40
12.0
100
AcDbArc
 50
270.0
 51
0.0
  0
LINE
  5
FB
330
1F
100
AcDbEntity
  8
0
  6
Continuous
 62
     7
370
    15
100
AcDbLine
 10
1430.2705988137
 20
946.5732809898
 30
0.0
 11
1430.2705988137
 21
945.5732808258
 31
0.0
  0
LINE
  5
FC
330
1F
100
AcDbEntity
  8
0
  6
Continuous
 62
     7
370
    15
100
AcDbLine
 10
1418.270574495
 20
958.5732810941
 30
0.0
 11
1355.27055113
 21
958.5732810941
 31
0.0
  0
ARC
  5
FD
330
1F
100
AcDbEntity
  8
0
  6
Continuous
 62
     7
370
    15
100
AcDbCircle
 10
1418.2705749718
 20
946.5732807215
 30
0.0
 40
12.0
100
AcDbArc
 50
0.0
 51
90.0
  0
LINE
  5
FE
330
1F
100
AcDbEntity
  8
0
  6
Continuous
 62
     7
370
    15
100
AcDbLine
 10
1355.27055113
 20
958.5732810941
 30
0.0
 11
305.2705988137
 21
958.5732810941
 31
0.0
  0
LINE
  5
FF
330
1F
100
AcDbEntity
  8
0
  6
Continuous
 62
     7
370
    15
100
AcDbLine
 10
305.2705988137
 20
933.5732807215
 30
0.0
 11
242.2705754487
 21
933.5732807215
 31
0.0
  0
ARC
  5
100
330
1F
100
AcDbEntity
  8
0
  6
Continuous
 62
     7
370
    15
100
AcDbCircle
 10
242.2705749718
 20
945.5732807215
 30
0.0
 40
12.0
100
AcDbArc
 50
180.0
 51
270.0
  0
LINE
  5
101
330
1F
100
AcDbEntity
  8
0
  6
Continuous
 62
     7
370
    15
100
AcDbLine
 10
305.2705988137
 20
958.5732810941
 30
0.0
 11
242.2705754487
 21
958.5732810941
 31
0.0
  0
ARC
  5
102
330
1F
100
AcDbEntity
  8
0
  6
Continuous
 62
     7
370
    15
100
AcDbCircle
 10
242.2705749718
 20
946.5732807215
 30
0.0
 40
12.0
100
AcDbArc
 50
90.0
 51
180.0
  0
LINE
  5
103
330
1F
100
AcDbEntity
  8
0
  6
Continuous
 62
     7
370
    15
100
AcDbLine
 10
230.27055113
 20
945.5732808258
 30
0.0
 11
230.27055113
 21
946.5732809898
 31
0.0
  0
ARC
  5
104
330
1F
100
AcDbEntity
  8
0
  6
Continuous
 62
     7
370
    15
100
AcDbCircle
 10
1418.2705749718
 20
971.5732807215
 30
0.0
 40
13.0000000000001
100
AcDbArc
 50
183.5833216985
 51
270.0
  0
ARC
  5
105
330
1F
100
AcDbEntity
  8
0
  6
Continuous
 62
     7
370
    15
100
AcDbCircle
 10
242.2705749718
 20
971.5732807215
 30
0.0
 40
13.00000000000004
100
AcDbArc
 50
270.0
 51
356.4166783015
  0
LINE
  5
106
330
1F
100
AcDbEntity
  8
0
  6
Continuous
 62
     7
370
    15
100
AcDbLine
 10
1355.27055113
 20
973.5732798275
 30
0.0
 11
1402.3018345086
 21
973.5732798275
 31
0.0
  0
ARC
  5
107
330
1F
100
AcDbEntity
  8
0
  6
Continuous
 62
     7
370
    15
100
AcDbCircle
 10
1402.3018555491
 20
970.5732807215
 30
0.0
 40
3.000000000000075
100
AcDbArc
 50
3.5833216985
 51
90.0
  0
LINE
  5
108
330
1F
100
AcDbEntity
  8
0
  6
Continuous
 62
     7
370
    15
100
AcDbLine
 10
305.2705988137
 20
973.5732798275
 30
0.0
 11
1355.27055113
 21
973.5732798275
 31
0.0
  0
LINE
  5
109
330
1F
100
AcDbEntity
  8
0
  6
Continuous
 62
     7
370
    15
100
AcDbLine
 10
258.2393154351
 20
973.5732798275
 30
0.0
 11
305.2705988137
 21
973.5732798275
 31
0.0
  0
ARC
  5
10A
330
1F
100
AcDbEntity
  8
0
  6
Continuous
 62
     7
370
    15
100
AcDbCircle
 10
258.2392943945
 20
970.5732807215
 30
0.0
 40
3.0
100
AcDbArc
 50
90.0
 51
176.4166783015
  0
LINE
  5
10B
330
1F
100
AcDbEntity
  8
0
  6
PHANTOM
 62
     8
370
     0
100
AcDbLine
 10
380.2705868927
 20
161.5732659396
 30
0.0
 11
230.27055113
 21
161.5732659396
 31
0.0
  0
LINE
  5
10C
330
1F
100
AcDbEntity
  8
0
  6
PHANTOM
 62
     8
370
     0
100
AcDbLine
 10
1430.2705988137
 20
161.5732659396
 30
0.0
 11
1280.2705630509
 21
161.5732659396
 31
0.0
  0
LINE
  5
10D
330
1F
100
AcDbEntity
  8
0
  6
PHANTOM
 62
     8
370
     0
100
AcDbLine
 10
360.2705761639
 20
190.5733098086
 30
0.0
 11
359.2705890385
 21
190.5733098086
 31
0.0
  0
LINE
  5
10E
330
1F
100
AcDbEntity
  8
0
  6
PHANTOM
 62
     8
370
     0
100
AcDbLine
 10
359.2705890385
 20
191.573296934
 30
0.0
 11
359.2705890385
 21
190.5733098086
 31
0.0
  0
LINE
  5
10F
330
1F
100
AcDbEntity
  8
0
  6
PHANTOM
 62
     8
370
     0
100
AcDbLine
 10
359.2705890385
 20
190.5733098086
 30
0.0
 11
352.1294757573
 21
190.5733098086
 31
0.0
  0
LINE
  5
110
330
1F
100
AcDbEntity
  8
0
  6
PHANTOM
 62
     8
370
     0
100
AcDbLine
 10
258.4116920678
 20
190.5733098086
 30
0.0
 11
251.2705787865
 21
190.5733098086
 31
0.0
  0
LINE
  5
111
330
1F
100
AcDbEntity
  8
0
  6
PHANTOM
 62
     8
370
     0
100
AcDbLine
 10
251.2705787865
 20
191.573296934
 30
0.0
 11
251.2705787865
 21
190.5733098086
 31
0.0
  0
LINE
  5
112
330
1F
100
AcDbEntity
  8
0
  6
PHANTOM
 62
     8
370
     0
100
AcDbLine
 10
251.2705787865
 20
190.5733098086
 30
0.0
 11
250.2705916611
 21
190.5733098086
 31
0.0
  0
LINE
  5
113
330
1F
100
AcDbEntity
  8
0
  6
PHANTOM
 62
     8
370
     0
100
AcDbLine
 10
250.2705916611
 20
172.5733031329
 30
0.0
 11
251.2705787865
 21
172.5733031329
 31
0.0
  0
LINE
  5
114
330
1F
100
AcDbEntity
  8
0
  6
PHANTOM
 62
     8
370
     0
100
AcDbLine
 10
251.2705787865
 20
171.5732564028
 30
0.0
 11
251.2705787865
 21
172.5733031329
 31
0.0
  0
LINE
  5
115
330
1F
100
AcDbEntity
  8
0
  6
PHANTOM
 62
     8
370
     0
100
AcDbLine
 10
251.2705787865
 20
190.5733098086
 30
0.0
 11
251.2705787865
 21
172.5733031329
 31
0.0
  0
LINE
  5
116
330
1F
100
AcDbEntity
  8
0
  6
PHANTOM
 62
     8
370
     0
100
AcDbLine
 10
251.2705787865
 20
172.5733031329
 30
0.0
 11
258.4116920678
 21
172.5733031329
 31
0.0
  0
LINE
  5
117
330
1F
100
AcDbEntity
  8
0
  6
PHANTOM
 62
     8
370
     0
100
AcDbLine
 10
352.1294757573
 20
172.5733031329
 30
0.0
 11
359.2705890385
 21
172.5733031329
 31
0.0
  0
LINE
  5
118
330
1F
100
AcDbEntity
  8
0
  6
PHANTOM
 62
     8
370
     0
100
AcDbLine
 10
359.2705890385
 20
171.5732564028
 30
0.0
 11
359.2705890385
 21
172.5733031329
 31
0.0
  0
LINE
  5
119
330
1F
100
AcDbEntity
  8
0
  6
PHANTOM
 62
     8
370
     0
100
AcDbLine
 10
359.2705890385
 20
172.5733031329
 30
0.0
 11
359.2705890385
 21
190.5733098086
 31
0.0
  0
LINE
  5
11A
330
1F
100
AcDbEntity
  8
0
  6
PHANTOM
 62
     8
370
     0
100
AcDbLine
 10
359.2705890385
 20
172.5733031329
 30
0.0
 11
360.2705761639
 21
172.5733031329
 31
0.0
  0
LINE
  5
11B
330
1F
100
AcDbEntity
  8
0
  6
PHANTOM
 62
     8
370
     0
100
AcDbLine
 10
349.2705687729
 20
192.5732840594
 30
0.0
 11
350.2705857007
 21
192.5732840594
 31
0.0
  0
LINE
  5
11C
330
1F
100
AcDbEntity
  8
0
  6
PHANTOM
 62
     8
370
     0
100
AcDbLine
 10
349.2705687729
 20
192.5732840594
 30
0.0
 11
349.2705687729
 21
191.573296934
 31
0.0
  0
LINE
  5
11D
330
1F
100
AcDbEntity
  8
0
  6
PHANTOM
 62
     8
370
     0
100
AcDbLine
 10
261.2705692498
 20
192.5732840594
 30
0.0
 11
265.270577356
 21
192.5732840594
 31
0.0
  0
LINE
  5
11E
330
1F
100
AcDbEntity
  8
0
  6
PHANTOM
 62
     8
370
     0
100
AcDbLine
 10
345.2705606667
 20
192.5732840594
 30
0.0
 11
349.2705687729
 21
192.5732840594
 31
0.0
  0
LINE
  5
11F
330
1F
100
AcDbEntity
  8
0
  6
PHANTOM
 62
     8
370
     0
100
AcDbLine
 10
261.2705692498
 20
192.5732840594
 30
0.0
 11
261.2705692498
 21
191.573296934
 31
0.0
  0
LINE
  5
120
330
1F
100
AcDbEntity
  8
0
  6
PHANTOM
 62
     8
370
     0
100
AcDbLine
 10
260.2705821244
 20
192.5732840594
 30
0.0
 11
261.2705692498
 21
192.5732840594
 31
0.0
  0
LINE
  5
121
330
1F
100
AcDbEntity
  8
0
  6
PHANTOM
 62
     8
370
     0
100
AcDbLine
 10
267.2705516068
 20
204.0732850131
 30
0.0
 11
268.0851682869
 21
204.0732850131
 31
0.0
  0
LINE
  5
122
330
1F
100
AcDbEntity
  8
0
  6
PHANTOM
 62
     8
370
     0
100
AcDbLine
 10
267.2705516068
 20
204.0732850131
 30
0.0
 11
267.2705516068
 21
266.2399758395
 31
0.0
  0
LINE
  5
123
330
1F
100
AcDbEntity
  8
0
  6
PHANTOM
 62
     8
370
     0
100
AcDbLine
 10
267.2705516068
 20
777.5732775029
 30
0.0
 11
267.2705516068
 21
783.5732747611
 31
0.0
  0
LINE
  5
124
330
1F
100
AcDbEntity
  8
0
  6
PHANTOM
 62
     8
370
     0
100
AcDbLine
 10
343.2705864159
 20
783.5732747611
 30
0.0
 11
343.2705864159
 21
777.5732775029
 31
0.0
  0
LINE
  5
125
330
1F
100
AcDbEntity
  8
0
  6
PHANTOM
 62
     8
370
     0
100
AcDbLine
 10
343.2705864159
 20
266.2399758395
 30
0.0
 11
343.2705864159
 21
204.0732850131
 31
0.0
  0
LINE
  5
126
330
1F
100
AcDbEntity
  8
0
  6
PHANTOM
 62
     8
370
     0
100
AcDbLine
 10
343.2705864159
 20
204.0732850131
 30
0.0
 11
342.4559995381
 21
204.0732850131
 31
0.0
  0
ARC
  5
127
330
1F
100
AcDbEntity
  8
0
  6
PHANTOM
 62
     8
370
     0
100
AcDbCircle
 10
339.7705749718
 20
204.0732807215
 30
0.0
 40
3.500000000000003
100
AcDbArc
 50
337.0323323619
 51
0.0
  0
ARC
  5
128
330
1F
100
AcDbEntity
  8
0
  6
PHANTOM
 62
     8
370
     0
100
AcDbCircle
 10
270.7705749718
 20
204.0732807215
 30
0.0
 40
3.50000000000002
100
AcDbArc
 50
180.0
 51
202.9676675759
  0
LINE
  5
129
330
1F
100
AcDbEntity
  8
0
  6
PHANTOM
 62
     8
370
     0
100
AcDbLine
 10
349.2705687729
 20
192.5732840594
 30
0.0
 11
349.2705687729
 21
654.2399574813
 31
0.0
  0
LINE
  5
12A
330
1F
100
AcDbEntity
  8
0
  6
PHANTOM
 62
     8
370
     0
100
AcDbLine
 10
349.2705687729
 20
773.7753291424
 30
0.0
 11
349.2705687729
 21
783.5732747611
 31
0.0
  0
LINE
  5
12B
330
1F
100
AcDbEntity
  8
0
  6
PHANTOM
 62
     8
370
     0
100
AcDbLine
 10
261.2705692498
 20
783.5732747611
 30
0.0
 11
261.2705692498
 21
773.7753291424
 31
0.0
  0
LINE
  5
12C
330
1F
100
AcDbEntity
  8
0
  6
PHANTOM
 62
     8
370
     0
100
AcDbLine
 10
261.2705692498
 20
654.2399574813
 30
0.0
 11
261.2705692498
 21
192.5732840594
 31
0.0
  0
LINE
  5
12D
330
1F
100
AcDbEntity
  8
0
  6
PHANTOM
 62
     8
370
     0
100
AcDbLine
 10
1410.2705582825
 20
172.5733031329
 30
0.0
 11
1409.2705711571
 21
172.5733031329
 31
0.0
  0
LINE
  5
12E
330
1F
100
AcDbEntity
  8
0
  6
PHANTOM
 62
     8
370
     0
100
AcDbLine
 10
1409.2705711571
 20
171.5732564028
 30
0.0
 11
1409.2705711571
 21
172.5733031329
 31
0.0
  0
LINE
  5
12F
330
1F
100
AcDbEntity
  8
0
  6
PHANTOM
 62
     8
370
     0
100
AcDbLine
 10
1301.2705609051
 20
172.5733031329
 30
0.0
 11
1300.2705737797
 21
172.5733031329
 31
0.0
  0
LINE
  5
130
330
1F
100
AcDbEntity
  8
0
  6
PHANTOM
 62
     8
370
     0
100
AcDbLine
 10
1300.2705737797
 20
190.5733098086
 30
0.0
 11
1301.2705609051
 21
190.5733098086
 31
0.0
  0
LINE
  5
131
330
1F
100
AcDbEntity
  8
0
  6
PHANTOM
 62
     8
370
     0
100
AcDbLine
 10
1301.2705609051
 20
172.5733031329
 30
0.0
 11
1301.2705609051
 21
190.5733098086
 31
0.0
  0
LINE
  5
132
330
1F
100
AcDbEntity
  8
0
  6
PHANTOM
 62
     8
370
     0
100
AcDbLine
 10
1409.2705711571
 20
190.5733098086
 30
0.0
 11
1410.2705582825
 21
190.5733098086
 31
0.0
  0
LINE
  5
133
330
1F
100
AcDbEntity
  8
0
  6
PHANTOM
 62
     8
370
     0
100
AcDbLine
 10
1409.2705711571
 20
191.573296934
 30
0.0
 11
1409.2705711571
 21
190.5733098086
 31
0.0
  0
LINE
  5
134
330
1F
100
AcDbEntity
  8
0
  6
PHANTOM
 62
     8
370
     0
100
AcDbLine
 10
1409.2705711571
 20
190.5733098086
 30
0.0
 11
1409.2705711571
 21
172.5733031329
 31
0.0
  0
LINE
  5
135
330
1F
100
AcDbEntity
  8
0
  6
PHANTOM
 62
     8
370
     0
100
AcDbLine
 10
1301.2705609051
 20
191.573296934
 30
0.0
 11
1301.2705609051
 21
190.5733098086
 31
0.0
  0
LINE
  5
136
330
1F
100
AcDbEntity
  8
0
  6
PHANTOM
 62
     8
370
     0
100
AcDbLine
 10
1409.2705711571
 20
172.5733031329
 30
0.0
 11
1402.1294578759
 21
172.5733031329
 31
0.0
  0
LINE
  5
137
330
1F
100
AcDbEntity
  8
0
  6
PHANTOM
 62
     8
370
     0
100
AcDbLine
 10
1308.4116741864
 20
172.5733031329
 30
0.0
 11
1301.2705609051
 21
172.5733031329
 31
0.0
  0
LINE
  5
138
330
1F
100
AcDbEntity
  8
0
  6
PHANTOM
 62
     8
370
     0
100
AcDbLine
 10
1301.2705609051
 20
190.5733098086
 30
0.0
 11
1308.4116741864
 21
190.5733098086
 31
0.0
  0
LINE
  5
139
330
1F
100
AcDbEntity
  8
0
  6
PHANTOM
 62
     8
370
     0
100
AcDbLine
 10
1402.1294578759
 20
190.5733098086
 30
0.0
 11
1409.2705711571
 21
190.5733098086
 31
0.0
  0
LINE
  5
13A
330
1F
100
AcDbEntity
  8
0
  6
PHANTOM
 62
     8
370
     0
100
AcDbLine
 10
1301.2705609051
 20
171.5732564028
 30
0.0
 11
1301.2705609051
 21
172.5733031329
 31
0.0
  0
LINE
  5
13B
330
1F
100
AcDbEntity
  8
0
  6
PHANTOM
 62
     8
370
     0
100
AcDbLine
 10
1311.2705811707
 20
192.5732840594
 30
0.0
 11
1310.270564243
 21
192.5732840594
 31
0.0
  0
LINE
  5
13C
330
1F
100
AcDbEntity
  8
0
  6
PHANTOM
 62
     8
370
     0
100
AcDbLine
 10
1311.2705811707
 20
192.5732840594
 30
0.0
 11
1311.2705811707
 21
191.573296934
 31
0.0
  0
LINE
  5
13D
330
1F
100
AcDbEntity
  8
0
  6
PHANTOM
 62
     8
370
     0
100
AcDbLine
 10
1399.2705806939
 20
192.5732840594
 30
0.0
 11
1399.2705806939
 21
191.573296934
 31
0.0
  0
LINE
  5
13E
330
1F
100
AcDbEntity
  8
0
  6
PHANTOM
 62
     8
370
     0
100
AcDbLine
 10
1400.2705678193
 20
192.5732840594
 30
0.0
 11
1399.2705806939
 21
192.5732840594
 31
0.0
  0
LINE
  5
13F
330
1F
100
AcDbEntity
  8
0
  6
PHANTOM
 62
     8
370
     0
100
AcDbLine
 10
1399.2705806939
 20
192.5732840594
 30
0.0
 11
1395.2705725876
 21
192.5732840594
 31
0.0
  0
LINE
  5
140
330
1F
100
AcDbEntity
  8
0
  6
PHANTOM
 62
     8
370
     0
100
AcDbLine
 10
1315.2705892769
 20
192.5732840594
 30
0.0
 11
1311.2705811707
 21
192.5732840594
 31
0.0
  0
LINE
  5
141
330
1F
100
AcDbEntity
  8
0
  6
PHANTOM
 62
     8
370
     0
100
AcDbLine
 10
1393.2705983368
 20
204.0732850131
 30
0.0
 11
1392.4559816567
 21
204.0732850131
 31
0.0
  0
ARC
  5
142
330
1F
100
AcDbEntity
  8
0
  6
PHANTOM
 62
     8
370
     0
100
AcDbCircle
 10
1389.7705749718
 20
204.0732807215
 30
0.0
 40
3.5
100
AcDbArc
 50
337.0323353927
 51
0.0
  0
LINE
  5
143
330
1F
100
AcDbEntity
  8
0
  6
PHANTOM
 62
     8
370
     0
100
AcDbLine
 10
1393.2705983368
 20
204.0732850131
 30
0.0
 11
1393.2705983368
 21
266.2399758395
 31
0.0
  0
LINE
  5
144
330
1F
100
AcDbEntity
  8
0
  6
PHANTOM
 62
     8
370
     0
100
AcDbLine
 10
1393.2705983368
 20
777.5732775029
 30
0.0
 11
1393.2705983368
 21
783.5732747611
 31
0.0
  0
LINE
  5
145
330
1F
100
AcDbEntity
  8
0
  6
PHANTOM
 62
     8
370
     0
100
AcDbLine
 10
1317.2705635277
 20
783.5732747611
 30
0.0
 11
1317.2705635277
 21
777.5732775029
 31
0.0
  0
LINE
  5
146
330
1F
100
AcDbEntity
  8
0
  6
PHANTOM
 62
     8
370
     0
100
AcDbLine
 10
1317.2705635277
 20
266.2399758395
 30
0.0
 11
1317.2705635277
 21
204.0732850131
 31
0.0
  0
LINE
  5
147
330
1F
100
AcDbEntity
  8
0
  6
PHANTOM
 62
     8
370
     0
100
AcDbLine
 10
1317.2705635277
 20
204.0732850131
 30
0.0
 11
1318.0851504055
 21
204.0732850131
 31
0.0
  0
LINE
  5
148
330
1F
100
AcDbEntity
  8
0
  6
PHANTOM
 62
     8
370
     0
100
AcDbLine
 10
1311.2705811707
 20
192.5732840594
 30
0.0
 11
1311.2705811707
 21
654.2399574813
 31
0.0
  0
LINE
  5
149
330
1F
100
AcDbEntity
  8
0
  6
PHANTOM
 62
     8
370
     0
100
AcDbLine
 10
1311.2705811707
 20
773.7753291424
 30
0.0
 11
1311.2705811707
 21
783.5732747611
 31
0.0
  0
LINE
  5
14A
330
1F
100
AcDbEntity
  8
0
  6
PHANTOM
 62
     8
370
     0
100
AcDbLine
 10
1399.2705806939
 20
783.5732747611
 30
0.0
 11
1399.2705806939
 21
773.7753291424
 31
0.0
  0
LINE
  5
14B
330
1F
100
AcDbEntity
  8
0
  6
PHANTOM
 62
     8
370
     0
100
AcDbLine
 10
1399.2705806939
 20
654.2399574813
 30
0.0
 11
1399.2705806939
 21
192.5732840594
 31
0.0
  0
ARC
  5
14C
330
1F
100
AcDbEntity
  8
0
  6
PHANTOM
 62
     8
370
     0
100
AcDbCircle
 10
1320.7705749718
 20
204.0732807215
 30
0.0
 40
3.5
100
AcDbArc
 50
180.0
 51
202.9676666486
  0
LINE
  5
14D
330
1F
100
AcDbEntity
  8
0
  6
PHANTOM
 62
     8
370
     0
100
AcDbLine
 10
305.2705988137
 20
181.5733064707
 30
0.0
 11
357.7705785481
 21
181.5733064707
 31
0.0
  0
LINE
  5
14E
330
1F
100
AcDbEntity
  8
0
  6
PHANTOM
 62
     8
370
     0
100
AcDbLine
 10
252.7705892769
 20
181.5733064707
 30
0.0
 11
305.2705988137
 21
181.5733064707
 31
0.0
  0
LINE
  5
14F
330
1F
100
AcDbEntity
  8
0
  6
PHANTOM
 62
     8
370
     0
100
AcDbLine
 10
1355.27055113
 20
181.5733064707
 30
0.0
 11
1407.7705606667
 21
181.5733064707
 31
0.0
  0
LINE
  5
150
330
1F
100
AcDbEntity
  8
0
  6
PHANTOM
 62
     8
370
     0
100
AcDbLine
 10
1302.7705713955
 20
181.5733064707
 30
0.0
 11
1355.27055113
 21
181.5733064707
 31
0.0
  0
LINE
  5
151
330
1F
100
AcDbEntity
  8
0
  6
PHANTOM
 62
     8
370
     0
100
AcDbLine
 10
351.0876163689
 20
771.7425425347
 30
0.0
 11
259.4535216538
 21
771.7425425347
 31
0.0
  0
LINE
  5
152
330
1F
100
AcDbEntity
  8
0
  6
PHANTOM
 62
     8
370
     0
100
AcDbLine
 10
305.2705988137
 20
773.7401027974
 30
0.0
 11
349.4516476838
 21
773.7401027974
 31
0.0
  0
LINE
  5
153
330
1F
100
AcDbEntity
  8
0
  6
PHANTOM
 62
     8
370
     0
100
AcDbLine
 10
261.0894903389
 20
773.7401027974
 30
0.0
 11
305.2705988137
 21
773.7401027974
 31
0.0
  0
LINE
  5
154
330
1F
100
AcDbEntity
  8
0
  6
PHANTOM
 62
     8
370
     0
100
AcDbLine
 10
305.2705988137
 20
205.277894884
 30
0.0
 11
342.3278495518
 21
205.277894884
 31
0.0
  0
LINE
  5
155
330
1F
100
AcDbEntity
  8
0
  6
PHANTOM
 62
     8
370
     0
100
AcDbLine
 10
268.2132586686
 20
205.277894884
 30
0.0
 11
305.2705988137
 21
205.277894884
 31
0.0
  0
LINE
  5
156
330
1F
100
AcDbEntity
  8
0
  6
PHANTOM
 62
     8
370
     0
100
AcDbLine
 10
305.2705988137
 20
196.5732921656
 30
0.0
 11
263.2706031052
 21
196.5732921656
 31
0.0
  0
LINE
  5
157
330
1F
100
AcDbEntity
  8
0
  6
PHANTOM
 62
     8
370
     0
100
AcDbLine
 10
347.2705647198
 20
196.5732921656
 30
0.0
 11
305.2705988137
 21
196.5732921656
 31
0.0
  0
LINE
  5
158
330
1F
100
AcDbEntity
  8
0
  6
PHANTOM
 62
     8
370
     0
100
AcDbLine
 10
344.7989091126
 20
200.8869399127
 30
0.0
 11
265.7422289101
 21
200.8869399127
 31
0.0
  0
LINE
  5
159
330
1F
100
AcDbEntity
  8
0
  6
PHANTOM
 62
     8
370
     0
100
AcDbLine
 10
1401.0876282898
 20
771.7425425347
 30
0.0
 11
1309.4535335747
 21
771.7425425347
 31
0.0
  0
LINE
  5
15A
330
1F
100
AcDbEntity
  8
0
  6
PHANTOM
 62
     8
370
     0
100
AcDbLine
 10
1355.27055113
 20
773.7401027974
 30
0.0
 11
1399.4516596047
 21
773.7401027974
 31
0.0
  0
LINE
  5
15B
330
1F
100
AcDbEntity
  8
0
  6
PHANTOM
 62
     8
370
     0
100
AcDbLine
 10
1311.0895022599
 20
773.7401027974
 30
0.0
 11
1355.27055113
 21
773.7401027974
 31
0.0
  0
LINE
  5
15C
330
1F
100
AcDbEntity
  8
0
  6
PHANTOM
 62
     8
370
     0
100
AcDbLine
 10
1355.27055113
 20
205.277894884
 30
0.0
 11
1392.3278912751
 21
205.277894884
 31
0.0
  0
LINE
  5
15D
330
1F
100
AcDbEntity
  8
0
  6
PHANTOM
 62
     8
370
     0
100
AcDbLine
 10
1318.2133003918
 20
205.277894884
 30
0.0
 11
1355.27055113
 21
205.277894884
 31
0.0
  0
LINE
  5
15E
330
1F
100
AcDbEntity
  8
0
  6
PHANTOM
 62
     8
370
     0
100
AcDbLine
 10
1355.27055113
 20
196.5732921656
 30
0.0
 11
1313.2705852238
 21
196.5732921656
 31
0.0
  0
LINE
  5
15F
330
1F
100
AcDbEntity
  8
0
  6
PHANTOM
 62
     8
370
     0
100
AcDbLine
 10
1397.2705468384
 20
196.5732921656
 30
0.0
 11
1355.27055113
 21
196.5732921656
 31
0.0
  0
LINE
  5
160
330
1F
100
AcDbEntity
  8
0
  6
PHANTOM
 62
     8
370
     0
100
AcDbLine
 10
1394.7989210335
 20
200.8869399127
 30
0.0
 11
1315.742240831
 21
200.8869399127
 31
0.0
  0
LINE
  5
161
330
1F
100
AcDbEntity
  8
0
  6
PHANTOM
 62
     8
370
     0
100
AcDbLine
 10
1355.27055113
 20
803.5732854899
 30
0.0
 11
1292.7705809323
 21
803.5732854899
 31
0.0
  0
LINE
  5
162
330
1F
100
AcDbEntity
  8
0
  6
PHANTOM
 62
     8
370
     0
100
AcDbLine
 10
1417.77055113
 20
803.5732854899
 30
0.0
 11
1355.27055113
 21
803.5732854899
 31
0.0
  0
LINE
  5
163
330
1F
100
AcDbEntity
  8
0
  6
PHANTOM
 62
     8
370
     0
100
AcDbLine
 10
1355.27055113
 20
788.5732848939
 30
0.0
 11
1408.2705840317
 21
788.5732848939
 31
0.0
  0
LINE
  5
164
330
1F
100
AcDbEntity
  8
0
  6
PHANTOM
 62
     8
370
     0
100
AcDbLine
 10
1302.2705778328
 20
788.5732848939
 30
0.0
 11
1355.27055113
 21
788.5732848939
 31
0.0
  0
LINE
  5
165
330
1F
100
AcDbEntity
  8
0
  6
PHANTOM
 62
     8
370
     0
100
AcDbLine
 10
305.2705988137
 20
803.5732854899
 30
0.0
 11
242.7705988137
 21
803.5732854899
 31
0.0
  0
LINE
  5
166
330
1F
100
AcDbEntity
  8
0
  6
PHANTOM
 62
     8
370
     0
100
AcDbLine
 10
367.7705690114
 20
803.5732854899
 30
0.0
 11
305.2705988137
 21
803.5732854899
 31
0.0
  0
LINE
  5
167
330
1F
100
AcDbEntity
  8
0
  6
PHANTOM
 62
     8
370
     0
100
AcDbLine
 10
305.2705988137
 20
788.5732848939
 30
0.0
 11
358.2705721108
 21
788.5732848939
 31
0.0
  0
LINE
  5
168
330
1F
100
AcDbEntity
  8
0
  6
PHANTOM
 62
     8
370
     0
100
AcDbLine
 10
252.2705659119
 20
788.5732848939
 30
0.0
 11
305.2705988137
 21
788.5732848939
 31
0.0
  0
LINE
  5
169
330
1F
100
AcDbEntity
  8
0
  6
PHANTOM
 62
     8
370
     0
100
AcDbLine
 10
1310.270564243
 20
933.3732807266
 30
0.0
 11
350.2705857007
 21
933.3732807266
 31
0.0
  0
LINE
  5
16A
330
1F
100
AcDbEntity
  8
0
  6
PHANTOM
 62
     8
370
     0
100
AcDbLine
 10
350.2705857007
 20
816.5732820328
 30
0.0
 11
1310.270564243
 21
816.5732820328
 31
0.0
  0
LINE
  5
16B
330
1F
100
AcDbEntity
  8
0
  6
PHANTOM
 62
     8
370
     0
100
AcDbLine
 10
1295.7705721108
 20
918.8732805472
 30
0.0
 11
1295.7705721108
 21
831.0732816156
 31
0.0
  0
LINE
  5
16C
330
1F
100
AcDbEntity
  8
0
  6
PHANTOM
 62
     8
370
     0
100
AcDbLine
 10
364.7705778328
 20
918.8732805472
 30
0.0
 11
1295.7705721108
 21
918.8732805472
 31
0.0
  0
LINE
  5
16D
330
1F
100
AcDbEntity
  8
0
  6
PHANTOM
 62
     8
370
     0
100
AcDbLine
 10
1295.7705721108
 20
831.0732816156
 30
0.0
 11
364.7705778328
 21
831.0732816156
 31
0.0
  0
LINE
  5
16E
330
1F
100
AcDbEntity
  8
0
  6
PHANTOM
 62
     8
370
     0
100
AcDbLine
 10
364.7705778328
 20
831.0732816156
 30
0.0
 11
364.7705778328
 21
918.8732805472
 31
0.0
  0
LINE
  5
16F
330
1F
100
AcDbEntity
  8
0
  6
PHANTOM
 62
     8
370
     0
100
AcDbLine
 10
1294.7705849854
 20
832.0732836422
 30
0.0
 11
1294.7705849854
 21
917.8732813146
 31
0.0
  0
LINE
  5
170
330
1F
100
AcDbEntity
  8
0
  6
PHANTOM
 62
     8
370
     0
100
AcDbLine
 10
1294.7705849854
 20
917.8732813146
 30
0.0
 11
365.7705649582
 21
917.8732813146
 31
0.0
  0
LINE
  5
171
330
1F
100
AcDbEntity
  8
0
  6
PHANTOM
 62
     8
370
     0
100
AcDbLine
 10
365.7705649582
 20
832.0732836422
 30
0.0
 11
1294.7705849854
 21
832.0732836422
 31
0.0
  0
LINE
  5
172
330
1F
100
AcDbEntity
  8
0
  6
PHANTOM
 62
     8
370
     0
100
AcDbLine
 10
365.7705649582
 20
917.8732813146
 30
0.0
 11
365.7705649582
 21
832.0732836422
 31
0.0
  0
LINE
  5
173
330
1F
100
AcDbEntity
  8
0
  6
PHANTOM
 62
     8
370
     0
100
AcDbLine
 10
1355.27055113
 20
813.5732834037
 30
0.0
 11
1355.27055113
 21
933.5732807215
 31
0.0
  0
LINE
  5
174
330
1F
100
AcDbEntity
  8
0
  6
PHANTOM
 62
     8
370
     0
100
AcDbLine
 10
1311.2705811707
 20
933.5732807215
 30
0.0
 11
1311.2705811707
 21
813.5732834037
 31
0.0
  0
LINE
  5
175
330
1F
100
AcDbEntity
  8
0
  6
PHANTOM
 62
     8
370
     0
100
AcDbLine
 10
305.2705988137
 20
813.5732834037
 30
0.0
 11
305.2705988137
 21
933.5732807215
 31
0.0
  0
LINE
  5
176
330
1F
100
AcDbEntity
  8
0
  6
PHANTOM
 62
     8
370
     0
100
AcDbLine
 10
349.2705687729
 20
813.5732834037
 30
0.0
 11
349.2705687729
 21
933.5732807215
 31
0.0
  0
LINE
  5
177
330
1F
100
AcDbEntity
  8
0
  6
PHANTOM
 62
     8
370
     0
100
AcDbLine
 10
305.2705988137
 20
933.5732807215
 30
0.0
 11
305.2705988137
 21
945.5732808258
 31
0.0
  0
LINE
  5
178
330
1F
100
AcDbEntity
  8
0
  6
PHANTOM
 62
     8
370
     0
100
AcDbLine
 10
305.2705988137
 20
945.5732808258
 30
0.0
 11
1355.27055113
 21
945.5732808258
 31
0.0
  0
LINE
  5
179
330
1F
100
AcDbEntity
  8
0
  6
PHANTOM
 62
     8
370
     0
100
AcDbLine
 10
1355.27055113
 20
933.5732807215
 30
0.0
 11
1355.27055113
 21
945.5732808258
 31
0.0
  0
LINE
  5
17A
330
1F
100
AcDbEntity
  8
0
  6
PHANTOM
 62
     8
370
     0
100
AcDbLine
 10
1355.27055113
 20
945.5732808258
 30
0.0
 11
1430.2705988137
 21
945.5732808258
 31
0.0
  0
LINE
  5
17B
330
1F
100
AcDbEntity
  8
0
  6
PHANTOM
 62
     8
370
     0
100
AcDbLine
 10
1430.2705988137
 20
946.5732809898
 30
0.0
 11
1355.27055113
 21
946.5732809898
 31
0.0
  0
LINE
  5
17C
330
1F
100
AcDbEntity
  8
0
  6
PHANTOM
 62
     8
370
     0
100
AcDbLine
 10
1355.27055113
 20
945.5732808258
 30
0.0
 11
1355.27055113
 21
946.5732809898
 31
0.0
  0
LINE
  5
17D
330
1F
100
AcDbEntity
  8
0
  6
PHANTOM
 62
     8
370
     0
100
AcDbLine
 10
1355.27055113
 20
946.5732809898
 30
0.0
 11
1355.27055113
 21
958.5732810941
 31
0.0
  0
LINE
  5
17E
330
1F
100
AcDbEntity
  8
0
  6
PHANTOM
 62
     8
370
     0
100
AcDbLine
 10
1355.27055113
 20
946.5732809898
 30
0.0
 11
305.2705988137
 21
946.5732809898
 31
0.0
  0
LINE
  5
17F
330
1F
100
AcDbEntity
  8
0
  6
PHANTOM
 62
     8
370
     0
100
AcDbLine
 10
305.2705988137
 20
946.5732809898
 30
0.0
 11
305.2705988137
 21
945.5732808258
 31
0.0
  0
LINE
  5
180
330
1F
100
AcDbEntity
  8
0
  6
PHANTOM
 62
     8
370
     0
100
AcDbLine
 10
305.2705988137
 20
946.5732809898
 30
0.0
 11
305.2705988137
 21
958.5732810941
 31
0.0
  0
LINE
  5
181
330
1F
100
AcDbEntity
  8
0
  6
PHANTOM
 62
     8
370
     0
100
AcDbLine
 10
230.27055113
 20
945.5732808258
 30
0.0
 11
305.2705988137
 21
945.5732808258
 31
0.0
  0
LINE
  5
182
330
1F
100
AcDbEntity
  8
0
  6
PHANTOM
 62
     8
370
     0
100
AcDbLine
 10
305.2705988137
 20
946.5732809898
 30
0.0
 11
230.27055113
 21
946.5732809898
 31
0.0
  0
LINE
  5
183
330
1F
100
AcDbEntity
  8
0
  6
PHANTOM
 62
     8
370
     0
100
AcDbLine
 10
1355.27055113
 20
958.5732810941
 30
0.0
 11
1355.27055113
 21
970.7607825097
 31
0.0
  0
LINE
  5
184
330
1F
100
AcDbEntity
  8
0
  6
PHANTOM
 62
     8
370
     0
100
AcDbLine
 10
1405.2960142342
 20
970.7607825097
 30
0.0
 11
1355.27055113
 21
970.7607825097
 31
0.0
  0
LINE
  5
185
330
1F
100
AcDbEntity
  8
0
  6
PHANTOM
 62
     8
370
     0
100
AcDbLine
 10
305.2705988137
 20
958.5732810941
 30
0.0
 11
305.2705988137
 21
970.7607825097
 31
0.0
  0
LINE
  5
186
330
1F
100
AcDbEntity
  8
0
  6
PHANTOM
 62
     8
370
     0
100
AcDbLine
 10
1355.27055113
 20
970.7607825097
 30
0.0
 11
305.2705988137
 21
970.7607825097
 31
0.0
  0
LINE
  5
187
330
1F
100
AcDbEntity
  8
0
  6
PHANTOM
 62
     8
370
     0
100
AcDbLine
 10
305.2705988137
 20
970.7607825097
 30
0.0
 11
255.2451357094
 21
970.7607825097
 31
0.0
  0
LINE
  5
188
330
1F
100
AcDbEntity
  8
0
  6
PHANTOM
 62
     8
370
     0
100
AcDbLine
 10
1355.27055113
 20
973.5732798275
 30
0.0
 11
1355.27055113
 21
970.7607825097
 31
0.0
  0
LINE
  5
189
330
1F
100
AcDbEntity
  8
0
  6
PHANTOM
 62
     8
370
     0
100
AcDbLine
 10
305.2705988137
 20
973.5732798275
 30
0.0
 11
305.2705988137
 21
970.7607825097
 31
0.0
  0
LINE
  5
18A
330
1F
100
AcDbEntity
  8
0
  6
Continuous
 62
     7
370
    15
100
AcDbLine
 10
1741.2119532556
 20
151.5732754763
 30
0.0
 11
1741.2119532556
 21
76.5732873973
 31
0.0
  0
ARC
  5
18B
330
1F
100
AcDbEntity
  8
0
  6
Continuous
 62
     7
370
    15
100
AcDbCircle
 10
1741.2119503946
 20
161.5732807215
 30
0.0
 40
10.0
100
AcDbArc
 50
180.0
 51
270.0
  0
ARC
  5
18C
330
1F
100
AcDbEntity
  8
0
  6
Continuous
 62
     7
370
    15
100
AcDbCircle
 10
1741.2119503946
 20
161.5732807215
 30
0.0
 40
10.0
100
AcDbArc
 50
90.0
 51
180.0
  0
ARC
  5
18D
330
1F
100
AcDbEntity
  8
0
  6
Continuous
 62
     7
370
    15
100
AcDbCircle
 10
1763.7119503946
 20
181.5732807215
 30
0.0
 40
10.0
100
AcDbArc
 50
90.0
 51
180.0
  0
ARC
  5
18E
330
1F
100
AcDbEntity
  8
0
  6
Continuous
 62
     7
370
    15
100
AcDbCircle
 10
1848.7119503946
 20
181.5732807215
 30
0.0
 40
10.0
100
AcDbArc
 50
0.0
 51
90.0
  0
ARC
  5
18F
330
1F
100
AcDbEntity
  8
0
  6
Continuous
 62
     7
370
    15
100
AcDbCircle
 10
1763.7119503946
 20
181.5732807215
 30
0.0
 40
10.0
100
AcDbArc
 50
180.0
 51
270.0
  0
ARC
  5
190
330
1F
100
AcDbEntity
  8
0
  6
Continuous
 62
     7
370
    15
100
AcDbCircle
 10
1848.7119503946
 20
181.5732807215
 30
0.0
 40
10.00000000000003
100
AcDbArc
 50
270.0
 51
0.0
  0
ARC
  5
191
330
1F
100
AcDbEntity
  8
0
  6
Continuous
 62
     7
370
    15
100
AcDbCircle
 10
1762.3946609711
 20
771.7734597678
 30
0.0
 40
1.999999999999905
100
AcDbArc
 50
100.4800148208
 51
180.8859465939
  0
ARC
  5
192
330
1F
100
AcDbEntity
  8
0
  6
Continuous
 62
     7
370
    15
100
AcDbCircle
 10
1850.0292398181
 20
771.7734597678
 30
0.0
 40
2.000000000000114
100
AcDbArc
 50
359.1140534062
 51
79.5199851792
  0
LINE
  5
193
330
1F
100
AcDbEntity
  8
0
  6
Continuous
 62
     7
370
    15
100
AcDbLine
 10
1760.3949035139
 20
771.7425425347
 30
0.0
 11
1769.154670331
 21
205.277894884
 31
0.0
  0
LINE
  5
194
330
1F
100
AcDbEntity
  8
0
  6
Continuous
 62
     7
370
    15
100
AcDbLine
 10
1843.2692314119
 20
205.277894884
 30
0.0
 11
1852.028998229
 21
771.7425425347
 31
0.0
  0
ARC
  5
195
330
1F
100
AcDbEntity
  8
0
  6
Continuous
 62
     7
370
    15
100
AcDbCircle
 10
1852.2119503946
 20
783.5732807215
 30
0.0
 40
10.00000000000016
100
AcDbArc
 50
180.0
 51
259.5199851792
  0
ARC
  5
196
330
1F
100
AcDbEntity
  8
0
  6
Continuous
 62
     7
370
    15
100
AcDbCircle
 10
1760.2119503946
 20
783.5732807215
 30
0.0
 40
10.0000000000002
100
AcDbArc
 50
280.4800148208
 51
0.0
  0
ARC
  5
197
330
1F
100
AcDbEntity
  8
0
  6
Continuous
 62
     7
370
    15
100
AcDbCircle
 10
1769.2119503946
 20
196.5732807215
 30
0.0
 40
4.999999999999805
100
AcDbArc
 50
120.375770099
 51
180.0
  0
ARC
  5
198
330
1F
100
AcDbEntity
  8
0
  6
Continuous
 62
     7
370
    15
100
AcDbCircle
 10
1843.2119503946
 20
196.5732807215
 30
0.0
 40
4.999999999999904
100
AcDbArc
 50
0.0
 51
59.624229901
  0
ARC
  5
199
330
1F
100
AcDbEntity
  8
0
  6
Continuous
 62
     7
370
    15
100
AcDbCircle
 10
1769.2119503946
 20
196.5732807215
 30
0.0
 40
4.999999999999886
100
AcDbArc
 50
180.0
 51
270.0
  0
ARC
  5
19A
330
1F
100
AcDbEntity
  8
0
  6
Continuous
 62
     7
370
    15
100
AcDbCircle
 10
1843.2119503946
 20
196.5732807215
 30
0.0
 40
4.999999999999886
100
AcDbArc
 50
270.0
 51
0.0
  0
ARC
  5
19B
330
1F
100
AcDbEntity
  8
0
  6
Continuous
 62
     7
370
    15
100
AcDbCircle
 10
1848.268640086
 20
205.2005566163
 30
0.0
 40
5.000000000000075
100
AcDbArc
 50
179.1140534061
 51
239.624229901
  0
ARC
  5
19C
330
1F
100
AcDbEntity
  8
0
  6
Continuous
 62
     7
370
    15
100
AcDbCircle
 10
1764.1552607032
 20
205.2005566163
 30
0.0
 40
5.000000000000232
100
AcDbArc
 50
300.375770099
 51
0.8859465939
  0
ARC
  5
19D
330
1F
100
AcDbEntity
  8
0
  6
Continuous
 62
     7
370
    15
100
AcDbCircle
 10
1753.7119503946
 20
803.5732807215
 30
0.0
 40
10.0
100
AcDbArc
 50
90.0
 51
180.0
  0
ARC
  5
19E
330
1F
100
AcDbEntity
  8
0
  6
Continuous
 62
     7
370
    15
100
AcDbCircle
 10
1858.7119503946
 20
803.5732807215
 30
0.0
 40
10.0
100
AcDbArc
 50
0.0
 51
90.0
  0
ARC
  5
19F
330
1F
100
AcDbEntity
  8
0
  6
Continuous
 62
     7
370
    15
100
AcDbCircle
 10
1753.7119503946
 20
803.5732807215
 30
0.0
 40
10.0
100
AcDbArc
 50
180.0
 51
270.0
  0
ARC
  5
1A0
330
1F
100
AcDbEntity
  8
0
  6
Continuous
 62
     7
370
    15
100
AcDbCircle
 10
1858.7119503946
 20
803.5732807215
 30
0.0
 40
10.0
100
AcDbArc
 50
270.0
 51
0.0
  0
ARC
  5
1A1
330
1F
100
AcDbEntity
  8
0
  6
Continuous
 62
     7
370
    15
100
AcDbCircle
 10
1758.2119503946
 20
788.5732807215
 30
0.0
 40
5.0
100
AcDbArc
 50
90.0
 51
180.0
  0
ARC
  5
1A2
330
1F
100
AcDbEntity
  8
0
  6
Continuous
 62
     7
370
    15
100
AcDbCircle
 10
1854.2119503946
 20
788.5732807215
 30
0.0
 40
5.000000000000227
100
AcDbArc
 50
0.0
 51
90.0
  0
ARC
  5
1A3
330
1F
100
AcDbEntity
  8
0
  6
Continuous
 62
     7
370
    15
100
AcDbCircle
 10
1758.2119503946
 20
788.5732807215
 30
0.0
 40
5.0
100
AcDbArc
 50
180.0
 51
270.0
  0
ARC
  5
1A4
330
1F
100
AcDbEntity
  8
0
  6
Continuous
 62
     7
370
    15
100
AcDbCircle
 10
1854.2119503946
 20
788.5732807215
 30
0.0
 40
5.000000000000227
100
AcDbArc
 50
270.0
 51
0.0
  0
LINE
  5
1A5
330
1F
100
AcDbEntity
  8
0
  6
Continuous
 62
     7
370
    15
100
AcDbLine
 10
1806.2119508714
 20
151.5732754763
 30
0.0
 11
1806.2119508714
 21
76.5732873973
 31
0.0
  0
LINE
  5
1A6
330
1F
100
AcDbEntity
  8
0
  6
Continuous
 62
     7
370
    15
100
AcDbLine
 10
1806.2119508714
 20
151.5732754763
 30
0.0
 11
2321.2119365663
 21
151.5732754763
 31
0.0
  0
LINE
  5
1A7
330
1F
100
AcDbEntity
  8
0
  6
Continuous
 62
     7
370
    15
100
AcDbLine
 10
1806.2119508714
 20
76.5732873973
 30
0.0
 11
2321.2119365663
 21
76.5732873973
 31
0.0
  0
LINE
  5
1A8
330
1F
100
AcDbEntity
  8
0
  6
Continuous
 62
     7
370
    15
100
AcDbLine
 10
2321.2119365663
 20
151.5732754763
 30
0.0
 11
2321.2119365663
 21
76.5732873973
 31
0.0
  0
LINE
  5
1A9
330
1F
100
AcDbEntity
  8
0
  6
Continuous
 62
     7
370
    15
100
AcDbLine
 10
1741.2119532556
 20
76.5732873973
 30
0.0
 11
1806.2119508714
 21
76.5732873973
 31
0.0
  0
LINE
  5
1AA
330
1F
100
AcDbEntity
  8
0
  6
Continuous
 62
     7
370
    15
100
AcDbLine
 10
1741.2119532556
 20
151.5732754763
 30
0.0
 11
1806.2119508714
 21
151.5732754763
 31
0.0
  0
LINE
  5
1AB
330
1F
100
AcDbEntity
  8
0
  6
Continuous
 62
     7
370
    15
100
AcDbLine
 10
2321.2119365663
 20
161.5732659396
 30
0.0
 11
2321.2119365663
 21
151.5732754763
 31
0.0
  0
LINE
  5
1AC
330
1F
100
AcDbEntity
  8
0
  6
Continuous
 62
     7
370
    15
100
AcDbLine
 10
1806.2119508714
 20
171.5732564028
 30
0.0
 11
2321.2119365663
 21
171.5732564028
 31
0.0
  0
LINE
  5
1AD
330
1F
100
AcDbEntity
  8
0
  6
Continuous
 62
     7
370
    15
100
AcDbLine
 10
2321.2119365663
 20
171.5732564028
 30
0.0
 11
2321.2119365663
 21
161.5732659396
 31
0.0
  0
LINE
  5
1AE
330
1F
100
AcDbEntity
  8
0
  6
Continuous
 62
     7
370
    15
100
AcDbLine
 10
1741.2119532556
 20
171.5732564028
 30
0.0
 11
1806.2119508714
 21
171.5732564028
 31
0.0
  0
ARC
  5
1AF
330
1F
100
AcDbEntity
  8
0
  6
Continuous
 62
     7
370
    15
100
AcDbCircle
 10
2320.2119503946
 20
190.5732807215
 30
0.0
 40
1.000000000000455
100
AcDbArc
 50
0.0
 51
90.0
  0
LINE
  5
1B0
330
1F
100
AcDbEntity
  8
0
  6
Continuous
 62
     7
370
    15
100
AcDbLine
 10
2291.2119651765
 20
190.5733098086
 30
0.0
 11
2291.2119651765
 21
172.5733031329
 31
0.0
  0
LINE
  5
1B1
330
1F
100
AcDbEntity
  8
0
  6
Continuous
 62
     7
370
    15
100
AcDbLine
 10
2320.2119494409
 20
191.573296934
 30
0.0
 11
2292.2119523019
 21
191.573296934
 31
0.0
  0
LINE
  5
1B2
330
1F
100
AcDbEntity
  8
0
  6
Continuous
 62
     7
370
    15
100
AcDbLine
 10
2321.2119365663
 20
172.5733031329
 30
0.0
 11
2321.2119365663
 21
190.5733098086
 31
0.0
  0
ARC
  5
1B3
330
1F
100
AcDbEntity
  8
0
  6
Continuous
 62
     7
370
    15
100
AcDbCircle
 10
2292.2119503946
 20
190.5732807215
 30
0.0
 40
1.000000000000455
100
AcDbArc
 50
90.0
 51
180.0
  0
ARC
  5
1B4
330
1F
100
AcDbEntity
  8
0
  6
Continuous
 62
     7
370
    15
100
AcDbCircle
 10
2320.2119503946
 20
172.5732807215
 30
0.0
 40
1.000000000000455
100
AcDbArc
 50
270.0
 51
0.0
  0
ARC
  5
1B5
330
1F
100
AcDbEntity
  8
0
  6
Continuous
 62
     7
370
    15
100
AcDbCircle
 10
2292.2119503946
 20
172.5732807215
 30
0.0
 40
1.000000000000455
100
AcDbArc
 50
180.0
 51
270.0
  0
ARC
  5
1B6
330
1F
100
AcDbEntity
  8
0
  6
Continuous
 62
     7
370
    15
100
AcDbCircle
 10
2300.2119503946
 20
192.5732807215
 30
0.0
 40
1.0
100
AcDbArc
 50
270.0
 51
0.0
  0
LINE
  5
1B7
330
1F
100
AcDbEntity
  8
0
  6
Continuous
 62
     7
370
    15
100
AcDbLine
 10
2321.2119365663
 20
190.5733098086
 30
0.0
 11
2321.2119365663
 21
192.5732840594
 31
0.0
  0
LINE
  5
1B8
330
1F
100
AcDbEntity
  8
0
  6
Continuous
 62
     7
370
    15
100
AcDbLine
 10
2301.2119556398
 20
813.5732834037
 30
0.0
 11
2301.2119556398
 21
192.5732840594
 31
0.0
  0
LINE
  5
1B9
330
1F
100
AcDbEntity
  8
0
  6
Continuous
 62
     7
370
    15
100
AcDbLine
 10
2302.2119427652
 20
813.5732834037
 30
0.0
 11
2301.2119556398
 21
813.5732834037
 31
0.0
  0
LINE
  5
1BA
330
1F
100
AcDbEntity
  8
0
  6
Continuous
 62
     7
370
    15
100
AcDbLine
 10
2302.2119427652
 20
813.5732834037
 30
0.0
 11
2320.2119494409
 21
813.5732834037
 31
0.0
  0
LINE
  5
1BB
330
1F
100
AcDbEntity
  8
0
  6
Continuous
 62
     7
370
    15
100
AcDbLine
 10
2321.2119365663
 20
813.5732834037
 30
0.0
 11
2320.2119494409
 21
813.5732834037
 31
0.0
  0
LINE
  5
1BC
330
1F
100
AcDbEntity
  8
0
  6
Continuous
 62
     7
370
    15
100
AcDbLine
 10
2321.2119365663
 20
192.5732840594
 30
0.0
 11
2321.2119365663
 21
813.5732834037
 31
0.0
  0
LINE
  5
1BD
330
1F
100
AcDbEntity
  8
0
  6
Continuous
 62
     7
370
    15
100
AcDbLine
 10
1763.7119616003
 20
191.573296934
 30
0.0
 11
1848.7119550438
 21
191.573296934
 31
0.0
  0
LINE
  5
1BE
330
1F
100
AcDbEntity
  8
0
  6
Continuous
 62
     7
370
    15
100
AcDbLine
 10
1753.7119413347
 20
813.5732834037
 30
0.0
 11
1827.4781132669
 21
813.5732834037
 31
0.0
  0
LINE
  5
1BF
330
1F
100
AcDbEntity
  8
0
  6
Continuous
 62
     7
370
    15
100
AcDbLine
 10
1753.7119413347
 20
793.5732801255
 30
0.0
 11
1858.711945507
 21
793.5732801255
 31
0.0
  0
LINE
  5
1C0
330
1F
100
AcDbEntity
  8
0
  6
Continuous
 62
     7
370
    15
100
AcDbLine
 10
1854.2119438381
 20
783.5732747611
 30
0.0
 11
1758.2119430036
 21
783.5732747611
 31
0.0
  0
LINE
  5
1C1
330
1F
100
AcDbEntity
  8
0
  6
Continuous
 62
     7
370
    15
100
AcDbLine
 10
2321.2119365663
 20
933.5732807215
 30
0.0
 11
2321.2119365663
 21
933.3732807266
 31
0.0
  0
LINE
  5
1C2
330
1F
100
AcDbEntity
  8
0
  6
Continuous
 62
     7
370
    15
100
AcDbLine
 10
2321.2119365663
 20
816.5732820328
 30
0.0
 11
2321.2119365663
 21
933.3732807266
 31
0.0
  0
LINE
  5
1C3
330
1F
100
AcDbEntity
  8
0
  6
Continuous
 62
     7
370
    15
100
AcDbLine
 10
2321.2119365663
 20
816.5732820328
 30
0.0
 11
2321.2119365663
 21
813.5732834037
 31
0.0
  0
LINE
  5
1C4
330
1F
100
AcDbEntity
  8
0
  6
Continuous
 62
     7
370
    15
100
AcDbLine
 10
2301.2119556398
 20
813.5732834037
 30
0.0
 11
1851.2119526596
 21
813.5732834037
 31
0.0
  0
LINE
  5
1C5
330
1F
100
AcDbEntity
  8
0
  6
Continuous
 62
     7
370
    15
100
AcDbLine
 10
2301.2119556398
 20
831.5732826289
 30
0.0
 11
2301.2119556398
 21
918.3732804652
 31
0.0
  0
LWPOLYLINE
  5
1C6
330
1F
100
AcDbEntity
  8
0
  6
Continuous
 62
     7
370
    15
100
AcDbPolyline
 90
        9
 70
   128
 43
0.0
 10
2301.7119492025
 20
918.8732805472
 10
2301.6144062013
 20
918.7757356834
 10
2301.5206182928
 20
918.6819393929
 10
2301.4341617555
 20
918.5954958942
 10
2301.358404252
 20
918.5197272148
 10
2301.2962068052
 20
918.4575456005
 10
2301.2500132055
 20
918.4113408249
 10
2301.2215519876
 20
918.3828879889
 10
2301.2119556398
 20
918.3732804652
  0
LWPOLYLINE
  5
1C7
330
1F
100
AcDbEntity
  8
0
  6
Continuous
 62
     7
370
    15
100
AcDbPolyline
 90
       10
 70
   128
 43
0.0
 10
2301.2119556398
 20
831.5732826289
 10
2301.219555232
 20
831.5656830367
 10
2301.2421155901
 20
831.5431301292
 10
2301.2789512605
 20
831.5062944587
 10
2301.3289297552
 20
831.4563010629
 10
2301.3905609579
 20
831.3946773108
 10
2301.46193752
 20
831.323278397
 10
2301.5409434766
 20
831.2442873415
 10
2301.6251350374
 20
831.1601032313
 10
2301.7119492025
 20
831.0732816156
  0
LINE
  5
1C8
330
1F
100
AcDbEntity
  8
0
  6
Continuous
 62
     7
370
    15
100
AcDbLine
 10
2301.2119556398
 20
918.3732804652
 30
0.0
 11
1866.2119532556
 21
918.3732804652
 31
0.0
  0
LWPOLYLINE
  5
1C9
330
1F
100
AcDbEntity
  8
0
  6
Continuous
 62
     7
370
    15
100
AcDbPolyline
 90
       10
 70
   128
 43
0.0
 10
1865.7119447918
 20
918.8732805472
 10
1865.798773858
 20
918.7864570688
 10
1865.8829654188
 20
918.702271096
 10
1865.9619564743
 20
918.6232809719
 10
1866.0333479375
 20
918.5518867146
 10
1866.0949791402
 20
918.4902583059
 10
1866.1449576349
 20
918.4402677041
 10
1866.1817933054
 20
918.4034348276
 10
1866.2043536634
 20
918.3808772635
 10
1866.2119532556
 20
918.3732804652
  0
LINE
  5
1CA
330
1F
100
AcDbEntity
  8
0
  6
Continuous
 62
     7
370
    15
100
AcDbLine
 10
1866.2119532556
 20
831.5732826289
 30
0.0
 11
2301.2119556398
 21
831.5732826289
 31
0.0
  0
LWPOLYLINE
  5
1CB
330
1F
100
AcDbEntity
  8
0
  6
Continuous
 62
     7
370
    15
100
AcDbPolyline
 90
        9
 70
   128
 43
0.0
 10
1866.2119532556
 20
831.5732826289
 10
1866.2023420066
 20
831.5636713799
 10
1866.1738956899
 20
831.5352176126
 10
1866.1276871891
 20
831.4890165623
 10
1866.0655046434
 20
831.4268340167
 10
1865.9897322387
 20
831.3510690626
 10
1865.9032906026
 20
831.2646199759
 10
1865.8095026941
 20
831.1708246168
 10
1865.7119447918
 20
831.0732816156
  0
LINE
  5
1CC
330
1F
100
AcDbEntity
  8
0
  6
Continuous
 62
     7
370
    15
100
AcDbLine
 10
1866.2119532556
 20
918.3732804652
 30
0.0
 11
1866.2119532556
 21
831.5732826289
 31
0.0
  0
LWPOLYLINE
  5
1CD
330
1F
100
AcDbEntity
  8
0
  6
Continuous
 62
     7
370
    15
100
AcDbPolyline
 90
       10
 70
   128
 43
0.0
 10
2300.7119620771
 20
832.0732836422
 10
2300.7987762422
 20
831.9864545759
 10
2300.882967803
 20
831.9022704657
 10
2300.9619439573
 20
831.8232794102
 10
2301.0333503217
 20
831.751887947
 10
2301.0949815244
 20
831.6902567443
 10
2301.1449600191
 20
831.640270799
 10
2301.1817956895
 20
831.6034351286
 10
2301.2043560476
 20
831.5808747705
 10
2301.2119556398
 20
831.5732826289
  0
LWPOLYLINE
  5
1CE
330
1F
100
AcDbEntity
  8
0
  6
Continuous
 62
     7
370
    15
100
AcDbPolyline
 90
       10
 70
   128
 43
0.0
 10
1866.7119468183
 20
832.0732836422
 10
1866.6251326532
 20
831.9864545759
 10
1866.5409410925
 20
831.9022704657
 10
1866.461950037
 20
831.8232794102
 10
1866.3905585737
 20
831.751887947
 10
1866.328927371
 20
831.6902567443
 10
1866.2789339752
 20
831.640270799
 10
1866.2420983047
 20
831.6034351286
 10
1866.2195528478
 20
831.5808747705
 10
1866.2119532556
 20
831.5732826289
  0
LWPOLYLINE
  5
1CF
330
1F
100
AcDbEntity
  8
0
  6
Continuous
 62
     7
370
    15
100
AcDbPolyline
 90
       10
 70
   128
 43
0.0
 10
2301.2119556398
 20
918.3732804652
 10
2301.2043560476
 20
918.3656845983
 10
2301.1817956895
 20
918.3431270342
 10
2301.1449600191
 20
918.3062932264
 10
2301.0949815244
 20
918.2563026246
 10
2301.0333503217
 20
918.1946742158
 10
2300.9619439573
 20
918.1232808899
 10
2300.882967803
 20
918.0442907658
 10
2300.7987762422
 20
917.9601047929
 10
2300.7119620771
 20
917.8732813146
  0
LWPOLYLINE
  5
1D0
330
1F
100
AcDbEntity
  8
0
  6
Continuous
 62
     7
370
    15
100
AcDbPolyline
 90
       10
 70
   128
 43
0.0
 10
1866.2119532556
 20
918.3732804652
 10
1866.2195528478
 20
918.3656845983
 10
1866.2420983047
 20
918.3431270342
 10
1866.2789339752
 20
918.3062932264
 10
1866.328927371
 20
918.2563026246
 10
1866.3905585737
 20
918.1946742158
 10
1866.461950037
 20
918.1232808899
 10
1866.5409410925
 20
918.0442907658
 10
1866.6251326532
 20
917.9601047929
 10
1866.7119468183
 20
917.8732813146
  0
LINE
  5
1D1
330
1F
100
AcDbEntity
  8
0
  6
Continuous
 62
     7
370
    15
100
AcDbLine
 10
1851.2119526596
 20
933.5732807215
 30
0.0
 11
1851.2119526596
 21
813.5732834037
 31
0.0
  0
LINE
  5
1D2
330
1F
100
AcDbEntity
  8
0
  6
Continuous
 62
     7
370
    15
100
AcDbLine
 10
1851.2119526596
 20
813.5732834037
 30
0.0
 11
1850.211950633
 21
813.5732834037
 31
0.0
  0
LINE
  5
1D3
330
1F
100
AcDbEntity
  8
0
  6
Continuous
 62
     7
370
    15
100
AcDbLine
 10
1850.211950633
 20
813.5732834037
 30
0.0
 11
1827.4781132669
 21
813.5732834037
 31
0.0
  0
LINE
  5
1D4
330
1F
100
AcDbEntity
  8
0
  6
Continuous
 62
     7
370
    15
100
AcDbLine
 10
1758.2119430036
 20
813.5732834037
 30
0.0
 11
1758.2119430036
 21
933.5732807215
 31
0.0
  0
LINE
  5
1D5
330
1F
100
AcDbEntity
  8
0
  6
Continuous
 62
     7
370
    15
100
AcDbLine
 10
2321.2119365663
 20
958.5732810941
 30
0.0
 11
1806.2119508714
 21
958.5732810941
 31
0.0
  0
LINE
  5
1D6
330
1F
100
AcDbEntity
  8
0
  6
Continuous
 62
     7
370
    15
100
AcDbLine
 10
2321.2119365663
 20
958.5732810941
 30
0.0
 11
2321.2119365663
 21
946.5732809898
 31
0.0
  0
LINE
  5
1D7
330
1F
100
AcDbEntity
  8
0
  6
Continuous
 62
     7
370
    15
100
AcDbLine
 10
2321.2119365663
 20
946.5732809898
 30
0.0
 11
2321.2119365663
 21
945.5732808258
 31
0.0
  0
LINE
  5
1D8
330
1F
100
AcDbEntity
  8
0
  6
Continuous
 62
     7
370
    15
100
AcDbLine
 10
2321.2119365663
 20
933.5732807215
 30
0.0
 11
1806.2119508714
 21
933.5732807215
 31
0.0
  0
LINE
  5
1D9
330
1F
100
AcDbEntity
  8
0
  6
Continuous
 62
     7
370
    15
100
AcDbLine
 10
2321.2119365663
 20
945.5732808258
 30
0.0
 11
2321.2119365663
 21
933.5732807215
 31
0.0
  0
LINE
  5
1DA
330
1F
100
AcDbEntity
  8
0
  6
Continuous
 62
     7
370
    15
100
AcDbLine
 10
1806.2119508714
 20
933.5732807215
 30
0.0
 11
1743.2119573087
 21
933.5732807215
 31
0.0
  0
ARC
  5
1DB
330
1F
100
AcDbEntity
  8
0
  6
Continuous
 62
     7
370
    15
100
AcDbCircle
 10
1743.2119503946
 20
945.5732807215
 30
0.0
 40
12.0
100
AcDbArc
 50
180.0
 51
270.0
  0
ARC
  5
1DC
330
1F
100
AcDbEntity
  8
0
  6
Continuous
 62
     7
370
    15
100
AcDbCircle
 10
1743.2119503946
 20
946.5732807215
 30
0.0
 40
12.0
100
AcDbArc
 50
90.0
 51
180.0
  0
LINE
  5
1DD
330
1F
100
AcDbEntity
  8
0
  6
Continuous
 62
     7
370
    15
100
AcDbLine
 10
1806.2119508714
 20
958.5732810941
 30
0.0
 11
1743.2119573087
 21
958.5732810941
 31
0.0
  0
LINE
  5
1DE
330
1F
100
AcDbEntity
  8
0
  6
Continuous
 62
     7
370
    15
100
AcDbLine
 10
1731.2119627924
 20
945.5732808258
 30
0.0
 11
1731.2119627924
 21
946.5732809898
 31
0.0
  0
LINE
  5
1DF
330
1F
100
AcDbEntity
  8
0
  6
Continuous
 62
     7
370
    15
100
AcDbLine
 10
2321.2119365663
 20
970.7607825097
 30
0.0
 11
2321.2119365663
 21
958.5732810941
 31
0.0
  0
ARC
  5
1E0
330
1F
100
AcDbEntity
  8
0
  6
Continuous
 62
     7
370
    15
100
AcDbCircle
 10
1743.2119503946
 20
971.5732807215
 30
0.0
 40
13.0
100
AcDbArc
 50
270.0
 51
356.4166783015
  0
LINE
  5
1E1
330
1F
100
AcDbEntity
  8
0
  6
Continuous
 62
     7
370
    15
100
AcDbLine
 10
1806.2119508714
 20
973.5732798275
 30
0.0
 11
2321.2119365663
 21
973.5732798275
 31
0.0
  0
LINE
  5
1E2
330
1F
100
AcDbEntity
  8
0
  6
Continuous
 62
     7
370
    15
100
AcDbLine
 10
2321.2119365663
 20
973.5732798275
 30
0.0
 11
2321.2119365663
 21
970.7607825097
 31
0.0
  0
LINE
  5
1E3
330
1F
100
AcDbEntity
  8
0
  6
Continuous
 62
     7
370
    15
100
AcDbLine
 10
1759.1806674928
 20
973.5732798275
 30
0.0
 11
1806.2119508714
 21
973.5732798275
 31
0.0
  0
ARC
  5
1E4
330
1F
100
AcDbEntity
  8
0
  6
Continuous
 62
     7
370
    15
100
AcDbCircle
 10
1759.1806698173
 20
970.5732807215
 30
0.0
 40
3.0
100
AcDbArc
 50
90.0
 51
176.4166783015
  0
LINE
  5
1E5
330
1F
100
AcDbEntity
  8
0
  6
PHANTOM
 62
     8
370
     0
100
AcDbLine
 10
1806.2119508714
 20
151.5732754763
 30
0.0
 11
1806.2119508714
 21
161.5732659396
 31
0.0
  0
LINE
  5
1E6
330
1F
100
AcDbEntity
  8
0
  6
PHANTOM
 62
     8
370
     0
100
AcDbLine
 10
2321.2119365663
 20
161.5732659396
 30
0.0
 11
1806.2119508714
 21
161.5732659396
 31
0.0
  0
LINE
  5
1E7
330
1F
100
AcDbEntity
  8
0
  6
PHANTOM
 62
     8
370
     0
100
AcDbLine
 10
1806.2119508714
 20
161.5732659396
 30
0.0
 11
1806.2119508714
 21
171.5732564028
 31
0.0
  0
LINE
  5
1E8
330
1F
100
AcDbEntity
  8
0
  6
PHANTOM
 62
     8
370
     0
100
AcDbLine
 10
1806.2119508714
 20
161.5732659396
 30
0.0
 11
1731.2119627924
 21
161.5732659396
 31
0.0
  0
LINE
  5
1E9
330
1F
100
AcDbEntity
  8
0
  6
PHANTOM
 62
     8
370
     0
100
AcDbLine
 10
2320.2119494409
 20
190.5733098086
 30
0.0
 11
2321.2119365663
 21
190.5733098086
 31
0.0
  0
LINE
  5
1EA
330
1F
100
AcDbEntity
  8
0
  6
PHANTOM
 62
     8
370
     0
100
AcDbLine
 10
2320.2119494409
 20
191.573296934
 30
0.0
 11
2320.2119494409
 21
190.5733098086
 31
0.0
  0
LINE
  5
1EB
330
1F
100
AcDbEntity
  8
0
  6
PHANTOM
 62
     8
370
     0
100
AcDbLine
 10
2292.2119523019
 20
172.5733031329
 30
0.0
 11
2291.2119651765
 21
172.5733031329
 31
0.0
  0
LINE
  5
1EC
330
1F
100
AcDbEntity
  8
0
  6
PHANTOM
 62
     8
370
     0
100
AcDbLine
 10
2291.2119651765
 20
190.5733098086
 30
0.0
 11
2292.2119523019
 21
190.5733098086
 31
0.0
  0
LINE
  5
1ED
330
1F
100
AcDbEntity
  8
0
  6
PHANTOM
 62
     8
370
     0
100
AcDbLine
 10
2292.2119523019
 20
172.5733031329
 30
0.0
 11
2292.2119523019
 21
190.5733098086
 31
0.0
  0
LINE
  5
1EE
330
1F
100
AcDbEntity
  8
0
  6
PHANTOM
 62
     8
370
     0
100
AcDbLine
 10
2320.2119494409
 20
172.5733031329
 30
0.0
 11
2292.2119523019
 21
172.5733031329
 31
0.0
  0
LINE
  5
1EF
330
1F
100
AcDbEntity
  8
0
  6
PHANTOM
 62
     8
370
     0
100
AcDbLine
 10
2292.2119523019
 20
190.5733098086
 30
0.0
 11
2320.2119494409
 21
190.5733098086
 31
0.0
  0
LINE
  5
1F0
330
1F
100
AcDbEntity
  8
0
  6
PHANTOM
 62
     8
370
     0
100
AcDbLine
 10
2320.2119494409
 20
190.5733098086
 30
0.0
 11
2320.2119494409
 21
172.5733031329
 31
0.0
  0
LINE
  5
1F1
330
1F
100
AcDbEntity
  8
0
  6
PHANTOM
 62
     8
370
     0
100
AcDbLine
 10
2292.2119523019
 20
191.573296934
 30
0.0
 11
2292.2119523019
 21
190.5733098086
 31
0.0
  0
LINE
  5
1F2
330
1F
100
AcDbEntity
  8
0
  6
PHANTOM
 62
     8
370
     0
100
AcDbLine
 10
2321.2119365663
 20
172.5733031329
 30
0.0
 11
2320.2119494409
 21
172.5733031329
 31
0.0
  0
LINE
  5
1F3
330
1F
100
AcDbEntity
  8
0
  6
PHANTOM
 62
     8
370
     0
100
AcDbLine
 10
2320.2119494409
 20
172.5733031329
 30
0.0
 11
2320.2119494409
 21
171.5732564028
 31
0.0
  0
LINE
  5
1F4
330
1F
100
AcDbEntity
  8
0
  6
PHANTOM
 62
     8
370
     0
100
AcDbLine
 10
2292.2119523019
 20
172.5733031329
 30
0.0
 11
2292.2119523019
 21
171.5732564028
 31
0.0
  0
LINE
  5
1F5
330
1F
100
AcDbEntity
  8
0
  6
PHANTOM
 62
     8
370
     0
100
AcDbLine
 10
2302.2119427652
 20
192.5732840594
 30
0.0
 11
2301.2119556398
 21
192.5732840594
 31
0.0
  0
LINE
  5
1F6
330
1F
100
AcDbEntity
  8
0
  6
PHANTOM
 62
     8
370
     0
100
AcDbLine
 10
2302.2119427652
 20
192.5732840594
 30
0.0
 11
2302.2119427652
 21
191.573296934
 31
0.0
  0
LINE
  5
1F7
330
1F
100
AcDbEntity
  8
0
  6
PHANTOM
 62
     8
370
     0
100
AcDbLine
 10
2320.2119494409
 20
192.5732840594
 30
0.0
 11
2320.2119494409
 21
191.573296934
 31
0.0
  0
LINE
  5
1F8
330
1F
100
AcDbEntity
  8
0
  6
PHANTOM
 62
     8
370
     0
100
AcDbLine
 10
2321.2119365663
 20
192.5732840594
 30
0.0
 11
2320.2119494409
 21
192.5732840594
 31
0.0
  0
LINE
  5
1F9
330
1F
100
AcDbEntity
  8
0
  6
PHANTOM
 62
     8
370
     0
100
AcDbLine
 10
2320.2119494409
 20
192.5732840594
 30
0.0
 11
2302.2119427652
 21
192.5732840594
 31
0.0
  0
LINE
  5
1FA
330
1F
100
AcDbEntity
  8
0
  6
PHANTOM
 62
     8
370
     0
100
AcDbLine
 10
2302.2119427652
 20
192.5732840594
 30
0.0
 11
2302.2119427652
 21
813.5732834037
 31
0.0
  0
LINE
  5
1FB
330
1F
100
AcDbEntity
  8
0
  6
PHANTOM
 62
     8
370
     0
100
AcDbLine
 10
2320.2119494409
 20
813.5732834037
 30
0.0
 11
2320.2119494409
 21
192.5732840594
 31
0.0
  0
LINE
  5
1FC
330
1F
100
AcDbEntity
  8
0
  6
PHANTOM
 62
     8
370
     0
100
AcDbLine
 10
1753.7119413347
 20
181.5733064707
 30
0.0
 11
1858.711945507
 21
181.5733064707
 31
0.0
  0
LINE
  5
1FD
330
1F
100
AcDbEntity
  8
0
  6
PHANTOM
 62
     8
370
     0
100
AcDbLine
 10
1852.028998229
 20
771.7425425347
 30
0.0
 11
1760.3949035139
 21
771.7425425347
 31
0.0
  0
LINE
  5
1FE
330
1F
100
AcDbEntity
  8
0
  6
PHANTOM
 62
     8
370
     0
100
AcDbLine
 10
1762.030872199
 20
773.7401027974
 30
0.0
 11
1850.3930295438
 21
773.7401027974
 31
0.0
  0
LINE
  5
1FF
330
1F
100
AcDbEntity
  8
0
  6
PHANTOM
 62
     8
370
     0
100
AcDbLine
 10
1769.154670331
 20
205.277894884
 30
0.0
 11
1843.2692314119
 21
205.277894884
 31
0.0
  0
LINE
  5
200
330
1F
100
AcDbEntity
  8
0
  6
PHANTOM
 62
     8
370
     0
100
AcDbLine
 10
1848.2119465799
 20
196.5732921656
 30
0.0
 11
1764.211955163
 21
196.5732921656
 31
0.0
  0
LINE
  5
201
330
1F
100
AcDbEntity
  8
0
  6
PHANTOM
 62
     8
370
     0
100
AcDbLine
 10
1845.7402909727
 20
200.8869399127
 30
0.0
 11
1766.6836107702
 21
200.8869399127
 31
0.0
  0
LINE
  5
202
330
1F
100
AcDbEntity
  8
0
  6
PHANTOM
 62
     8
370
     0
100
AcDbLine
 10
1868.7119508714
 20
803.5732854899
 30
0.0
 11
1743.7119508714
 21
803.5732854899
 31
0.0
  0
LINE
  5
203
330
1F
100
AcDbEntity
  8
0
  6
PHANTOM
 62
     8
370
     0
100
AcDbLine
 10
1753.211947772
 20
788.5732848939
 30
0.0
 11
1859.2119539709
 21
788.5732848939
 31
0.0
  0
LINE
  5
204
330
1F
100
AcDbEntity
  8
0
  6
PHANTOM
 62
     8
370
     0
100
AcDbLine
 10
2321.2119365663
 20
933.3732807266
 30
0.0
 11
1851.2119526596
 21
933.3732807266
 31
0.0
  0
LINE
  5
205
330
1F
100
AcDbEntity
  8
0
  6
PHANTOM
 62
     8
370
     0
100
AcDbLine
 10
1851.2119526596
 20
816.5732820328
 30
0.0
 11
2321.2119365663
 21
816.5732820328
 31
0.0
  0
LINE
  5
206
330
1F
100
AcDbEntity
  8
0
  6
PHANTOM
 62
     8
370
     0
100
AcDbLine
 10
1865.7119447918
 20
831.0732816156
 30
0.0
 11
1865.7119447918
 21
918.8732805472
 31
0.0
  0
LINE
  5
207
330
1F
100
AcDbEntity
  8
0
  6
PHANTOM
 62
     8
370
     0
100
AcDbLine
 10
2301.7119492025
 20
831.0732816156
 30
0.0
 11
1865.7119447918
 21
831.0732816156
 31
0.0
  0
LINE
  5
208
330
1F
100
AcDbEntity
  8
0
  6
PHANTOM
 62
     8
370
     0
100
AcDbLine
 10
2301.7119492025
 20
918.8732805472
 30
0.0
 11
2301.7119492025
 21
831.0732816156
 31
0.0
  0
LINE
  5
209
330
1F
100
AcDbEntity
  8
0
  6
PHANTOM
 62
     8
370
     0
100
AcDbLine
 10
1865.7119447918
 20
918.8732805472
 30
0.0
 11
2301.7119492025
 21
918.8732805472
 31
0.0
  0
LINE
  5
20A
330
1F
100
AcDbEntity
  8
0
  6
PHANTOM
 62
     8
370
     0
100
AcDbLine
 10
1866.7119468183
 20
832.0732836422
 30
0.0
 11
2300.7119620771
 21
832.0732836422
 31
0.0
  0
LINE
  5
20B
330
1F
100
AcDbEntity
  8
0
  6
PHANTOM
 62
     8
370
     0
100
AcDbLine
 10
2300.7119620771
 20
917.8732813146
 30
0.0
 11
1866.7119468183
 21
917.8732813146
 31
0.0
  0
LINE
  5
20C
330
1F
100
AcDbEntity
  8
0
  6
PHANTOM
 62
     8
370
     0
100
AcDbLine
 10
2300.7119620771
 20
832.0732836422
 30
0.0
 11
2300.7119620771
 21
917.8732813146
 31
0.0
  0
LINE
  5
20D
330
1F
100
AcDbEntity
  8
0
  6
PHANTOM
 62
     8
370
     0
100
AcDbLine
 10
1866.7119468183
 20
917.8732813146
 30
0.0
 11
1866.7119468183
 21
832.0732836422
 31
0.0
  0
LINE
  5
20E
330
1F
100
AcDbEntity
  8
0
  6
PHANTOM
 62
     8
370
     0
100
AcDbLine
 10
1850.211950633
 20
813.5732834037
 30
0.0
 11
1850.211950633
 21
933.5732807215
 31
0.0
  0
LINE
  5
20F
330
1F
100
AcDbEntity
  8
0
  6
PHANTOM
 62
     8
370
     0
100
AcDbLine
 10
1806.2119508714
 20
813.5732834037
 30
0.0
 11
1806.2119508714
 21
933.5732807215
 31
0.0
  0
LINE
  5
210
330
1F
100
AcDbEntity
  8
0
  6
PHANTOM
 62
     8
370
     0
100
AcDbLine
 10
2321.2119365663
 20
946.5732809898
 30
0.0
 11
1806.2119508714
 21
946.5732809898
 31
0.0
  0
LINE
  5
211
330
1F
100
AcDbEntity
  8
0
  6
PHANTOM
 62
     8
370
     0
100
AcDbLine
 10
1806.2119508714
 20
946.5732809898
 30
0.0
 11
1806.2119508714
 21
958.5732810941
 31
0.0
  0
LINE
  5
212
330
1F
100
AcDbEntity
  8
0
  6
PHANTOM
 62
     8
370
     0
100
AcDbLine
 10
1806.2119508714
 20
945.5732808258
 30
0.0
 11
2321.2119365663
 21
945.5732808258
 31
0.0
  0
LINE
  5
213
330
1F
100
AcDbEntity
  8
0
  6
PHANTOM
 62
     8
370
     0
100
AcDbLine
 10
1806.2119508714
 20
946.5732809898
 30
0.0
 11
1806.2119508714
 21
945.5732808258
 31
0.0
  0
LINE
  5
214
330
1F
100
AcDbEntity
  8
0
  6
PHANTOM
 62
     8
370
     0
100
AcDbLine
 10
1806.2119508714
 20
933.5732807215
 30
0.0
 11
1806.2119508714
 21
945.5732808258
 31
0.0
  0
LINE
  5
215
330
1F
100
AcDbEntity
  8
0
  6
PHANTOM
 62
     8
370
     0
100
AcDbLine
 10
1731.2119627924
 20
945.5732808258
 30
0.0
 11
1806.2119508714
 21
945.5732808258
 31
0.0
  0
LINE
  5
216
330
1F
100
AcDbEntity
  8
0
  6
PHANTOM
 62
     8
370
     0
100
AcDbLine
 10
1806.2119508714
 20
946.5732809898
 30
0.0
 11
1731.2119627924
 21
946.5732809898
 31
0.0
  0
LINE
  5
217
330
1F
100
AcDbEntity
  8
0
  6
PHANTOM
 62
     8
370
     0
100
AcDbLine
 10
1806.2119508714
 20
958.5732810941
 30
0.0
 11
1806.2119508714
 21
970.7607825097
 31
0.0
  0
LINE
  5
218
330
1F
100
AcDbEntity
  8
0
  6
PHANTOM
 62
     8
370
     0
100
AcDbLine
 10
2321.2119365663
 20
970.7607825097
 30
0.0
 11
1806.2119508714
 21
970.7607825097
 31
0.0
  0
LINE
  5
219
330
1F
100
AcDbEntity
  8
0
  6
PHANTOM
 62
     8
370
     0
100
AcDbLine
 10
1806.2119508714
 20
970.7607825097
 30
0.0
 11
1756.1865473718
 21
970.7607825097
 31
0.0
  0
LINE
  5
21A
330
1F
100
AcDbEntity
  8
0
  6
PHANTOM
 62
     8
370
     0
100
AcDbLine
 10
1806.2119508714
 20
973.5732798275
 30
0.0
 11
1806.2119508714
 21
970.7607825097
 31
0.0
  0
LINE
  5
21B
330
1F
100
AcDbEntity
  8
0
  6
Continuous
 62
     7
370
    15
100
AcDbLine
 10
1402.3018345086
 20
1719.3291857208
 30
0.0
 11
1405.2960142342
 21
1719.3291857208
 31
0.0
  0
LINE
  5
21C
330
1F
100
AcDbEntity
  8
0
  6
Continuous
 62
     7
370
    15
100
AcDbLine
 10
255.2451357094
 20
1719.3291857208
 30
0.0
 11
258.2393154351
 21
1719.3291857208
 31
0.0
  0
CIRCLE
  5
21D
330
1F
100
AcDbEntity
  8
0
  6
Continuous
 62
     7
370
    15
100
AcDbCircle
 10
830.2705749718
 20
1649.329199549
 30
0.0
 40
17.50000000000023
  0
CIRCLE
  5
21E
330
1F
100
AcDbEntity
  8
0
  6
Continuous
 62
     7
370
    15
100
AcDbCircle
 10
730.2705749718
 20
1649.329199549
 30
0.0
 40
15.00000000000023
  0
CIRCLE
  5
21F
330
1F
100
AcDbEntity
  8
0
  6
Continuous
 62
     7
370
    15
100
AcDbCircle
 10
930.2705749718
 20
1649.329199549
 30
0.0
 40
15.00000000000023
  0
LINE
  5
220
330
1F
100
AcDbEntity
  8
0
  6
Continuous
 62
     7
370
    15
100
AcDbLine
 10
1402.3018345086
 20
1719.3291857208
 30
0.0
 11
258.2393154351
 21
1719.3291857208
 31
0.0
  0
ARC
  5
221
330
1F
100
AcDbEntity
  8
0
  6
Continuous
 62
     7
370
    15
100
AcDbCircle
 10
635.2705749718
 20
1669.329199549
 30
0.0
 40
20.00000000000011
100
AcDbArc
 50
0.0
 51
90.0
  0
LINE
  5
222
330
1F
100
AcDbEntity
  8
0
  6
Continuous
 62
     7
370
    15
100
AcDbLine
 10
1355.27055113
 20
1689.329214331
 30
0.0
 11
1025.2705678193
 21
1689.329214331
 31
0.0
  0
LINE
  5
223
330
1F
100
AcDbEntity
  8
0
  6
Continuous
 62
     7
370
    15
100
AcDbLine
 10
635.2705821244
 20
1689.329214331
 30
0.0
 11
305.2705988137
 21
1689.329214331
 31
0.0
  0
ARC
  5
224
330
1F
100
AcDbEntity
  8
0
  6
Continuous
 62
     7
370
    15
100
AcDbCircle
 10
1025.2705749718
 20
1669.329199549
 30
0.0
 40
20.00000000000011
100
AcDbArc
 50
90.0
 51
180.0
  0
ARC
  5
225
330
1F
100
AcDbEntity
  8
0
  6
Continuous
 62
     7
370
    15
100
AcDbCircle
 10
305.2705749718
 20
1669.329199549
 30
0.0
 40
20.00000000000006
100
AcDbArc
 50
90.0
 51
180.0
  0
ARC
  5
226
330
1F
100
AcDbEntity
  8
0
  6
Continuous
 62
     7
370
    15
100
AcDbCircle
 10
1355.2705749718
 20
1669.329199549
 30
0.0
 40
20.0
100
AcDbArc
 50
0.0
 51
90.0
  0
LINE
  5
227
330
1F
100
AcDbEntity
  8
0
  6
Continuous
 62
     7
370
    15
100
AcDbLine
 10
655.270577952
 20
1629.3291970456
 30
0.0
 11
655.270577952
 21
1669.3292036022
 31
0.0
  0
LINE
  5
228
330
1F
100
AcDbEntity
  8
0
  6
Continuous
 62
     7
370
    15
100
AcDbLine
 10
1005.2705719916
 20
1669.3292036022
 30
0.0
 11
1005.2705719916
 21
1629.3291970456
 31
0.0
  0
LINE
  5
229
330
1F
100
AcDbEntity
  8
0
  6
Continuous
 62
     7
370
    15
100
AcDbLine
 10
1375.2705916611
 20
1204.3292000259
 30
0.0
 11
1375.2705916611
 21
1669.3292036022
 31
0.0
  0
LINE
  5
22A
330
1F
100
AcDbEntity
  8
0
  6
Continuous
 62
     7
370
    15
100
AcDbLine
 10
285.2705582825
 20
1669.3292036022
 30
0.0
 11
285.2705582825
 21
1204.3292000259
 31
0.0
  0
ARC
  5
22B
330
1F
100
AcDbEntity
  8
0
  6
Continuous
 62
     7
370
    15
100
AcDbCircle
 10
675.2705749718
 20
1629.329199549
 30
0.0
 40
20.0
100
AcDbArc
 50
180.0
 51
270.0
  0
ARC
  5
22C
330
1F
100
AcDbEntity
  8
0
  6
Continuous
 62
     7
370
    15
100
AcDbCircle
 10
985.2705749718
 20
1629.329199549
 30
0.0
 40
20.0
100
AcDbArc
 50
270.0
 51
0.0
  0
LINE
  5
22D
330
1F
100
AcDbEntity
  8
0
  6
Continuous
 62
     7
370
    15
100
AcDbLine
 10
985.2705761639
 20
1609.329201218
 30
0.0
 11
675.2705737797
 21
1609.329201218
 31
0.0
  0
ARC
  5
22E
330
1F
100
AcDbEntity
  8
0
  6
Continuous
 62
     7
370
    15
100
AcDbCircle
 10
1355.2705749718
 20
1204.329199549
 30
0.0
 40
20.0
100
AcDbArc
 50
270.0
 51
0.0
  0
ARC
  5
22F
330
1F
100
AcDbEntity
  8
0
  6
Continuous
 62
     7
370
    15
100
AcDbCircle
 10
305.2705749718
 20
1204.329199549
 30
0.0
 40
20.00000000000006
100
AcDbArc
 50
180.0
 51
270.0
  0
LINE
  5
230
330
1F
100
AcDbEntity
  8
0
  6
Continuous
 62
     7
370
    15
100
AcDbLine
 10
305.2705988137
 20
1184.3292041982
 30
0.0
 11
1355.27055113
 21
1184.3292041982
 31
0.0
  0
LINE
  5
231
330
1F
100
AcDbEntity
  8
0
  6
Continuous
 62
     7
370
    15
100
AcDbLine
 10
1405.2960142342
 20
1719.3291857208
 30
0.0
 11
1418.270574495
 21
1719.3291857208
 31
0.0
  0
LINE
  5
232
330
1F
100
AcDbEntity
  8
0
  6
Continuous
 62
     7
370
    15
100
AcDbLine
 10
242.2705754487
 20
1719.3291857208
 30
0.0
 11
255.2451357094
 21
1719.3291857208
 31
0.0
  0
ARC
  5
233
330
1F
100
AcDbEntity
  8
0
  6
Continuous
 62
     7
370
    15
100
AcDbCircle
 10
830.2705749718
 20
1283.329199549
 30
0.0
 40
275.0
100
AcDbArc
 50
51.4539933098
 51
128.5460066902
  0
ARC
  5
234
330
1F
100
AcDbEntity
  8
0
  6
Continuous
 62
     7
370
    15
100
AcDbCircle
 10
922.6933169596
 20
1399.329199549
 30
0.0
 40
126.6828963452581
100
AcDbArc
 50
308.5460066902
 51
51.4539933098
  0
ARC
  5
235
330
1F
100
AcDbEntity
  8
0
  6
Continuous
 62
     7
370
    15
100
AcDbCircle
 10
737.8478329841
 20
1399.329199549
 30
0.0
 40
126.6828963452582
100
AcDbArc
 50
128.5460066902
 51
231.4539933098
  0
ARC
  5
236
330
1F
100
AcDbEntity
  8
0
  6
Continuous
 62
     7
370
    15
100
AcDbCircle
 10
830.2705749718
 20
1515.329199549
 30
0.0
 40
275.0
100
AcDbArc
 50
231.4539933098
 51
308.5460066902
  0
LINE
  5
237
330
1F
100
AcDbEntity
  8
0
  6
Continuous
 62
     7
370
    15
100
AcDbLine
 10
230.27055113
 20
1204.3292000259
 30
0.0
 11
230.27055113
 21
1719.3291857208
 31
0.0
  0
LINE
  5
238
330
1F
100
AcDbEntity
  8
0
  6
Continuous
 62
     7
370
    15
100
AcDbLine
 10
230.27055113
 20
1719.3291857208
 30
0.0
 11
242.2705754487
 21
1719.3291857208
 31
0.0
  0
LINE
  5
239
330
1F
100
AcDbEntity
  8
0
  6
Continuous
 62
     7
370
    15
100
AcDbLine
 10
1430.2705988137
 20
1719.3291857208
 30
0.0
 11
1430.2705988137
 21
1204.3292000259
 31
0.0
  0
LINE
  5
23A
330
1F
100
AcDbEntity
  8
0
  6
Continuous
 62
     7
370
    15
100
AcDbLine
 10
1418.270574495
 20
1719.3291857208
 30
0.0
 11
1430.2705988137
 21
1719.3291857208
 31
0.0
  0
ARC
  5
23B
330
1F
100
AcDbEntity
  8
0
  6
Continuous
 62
     7
370
    15
100
AcDbCircle
 10
305.2705749718
 20
1204.329199549
 30
0.0
 40
75.00000000000023
100
AcDbArc
 50
180.0
 51
270.0
  0
ARC
  5
23C
330
1F
100
AcDbEntity
  8
0
  6
Continuous
 62
     7
370
    15
100
AcDbCircle
 10
1355.2705749718
 20
1204.329199549
 30
0.0
 40
75.00000000000023
100
AcDbArc
 50
270.0
 51
0.0
  0
LINE
  5
23D
330
1F
100
AcDbEntity
  8
0
  6
Continuous
 62
     7
370
    15
100
AcDbLine
 10
1355.27055113
 20
1129.3292119468
 30
0.0
 11
305.2705988137
 21
1129.3292119468
 31
0.0
  0
LINE
  5
23E
330
1F
100
AcDbEntity
  8
0
  6
PHANTOM
 62
     8
370
     0
100
AcDbLine
 10
1402.3018345086
 20
1204.3292000259
 30
0.0
 11
1402.3018345086
 21
1719.3291857208
 31
0.0
  0
LINE
  5
23F
330
1F
100
AcDbEntity
  8
0
  6
PHANTOM
 62
     8
370
     0
100
AcDbLine
 10
1405.2960142342
 20
1719.3291857208
 30
0.0
 11
1405.2960142342
 21
1204.3292000259
 31
0.0
  0
LINE
  5
240
330
1F
100
AcDbEntity
  8
0
  6
PHANTOM
 62
     8
370
     0
100
AcDbLine
 10
1402.3018345086
 20
1204.3292000259
 30
0.0
 11
1405.2960142342
 21
1204.3292000259
 31
0.0
  0
LINE
  5
241
330
1F
100
AcDbEntity
  8
0
  6
PHANTOM
 62
     8
370
     0
100
AcDbLine
 10
258.2393154351
 20
1719.3291857208
 30
0.0
 11
258.2393154351
 21
1204.3292000259
 31
0.0
  0
LINE
  5
242
330
1F
100
AcDbEntity
  8
0
  6
PHANTOM
 62
     8
370
     0
100
AcDbLine
 10
258.2393154351
 20
1204.3292000259
 30
0.0
 11
255.2451357094
 21
1204.3292000259
 31
0.0
  0
LINE
  5
243
330
1F
100
AcDbEntity
  8
0
  6
PHANTOM
 62
     8
370
     0
100
AcDbLine
 10
255.2451357094
 20
1204.3292000259
 30
0.0
 11
255.2451357094
 21
1719.3291857208
 31
0.0
  0
LINE
  5
244
330
1F
100
AcDbEntity
  8
0
  6
PHANTOM
 62
     8
370
     0
100
AcDbLine
 10
305.2705988137
 20
1157.2979166473
 30
0.0
 11
1355.27055113
 21
1157.2979166473
 31
0.0
  0
ARC
  5
245
330
1F
100
AcDbEntity
  8
0
  6
PHANTOM
 62
     8
370
     0
100
AcDbCircle
 10
305.2705749718
 20
1204.329199549
 30
0.0
 40
47.0312805773288
100
AcDbArc
 50
180.0
 51
270.0
  0
ARC
  5
246
330
1F
100
AcDbEntity
  8
0
  6
PHANTOM
 62
     8
370
     0
100
AcDbCircle
 10
1355.2705749718
 20
1204.329199549
 30
0.0
 40
47.03128057732874
100
AcDbArc
 50
270.0
 51
0.0
  0
ARC
  5
247
330
1F
100
AcDbEntity
  8
0
  6
PHANTOM
 62
     8
370
     0
100
AcDbCircle
 10
305.2705749718
 20
1669.329199549
 30
0.0
 40
23.00000000000006
100
AcDbArc
 50
90.0
 51
180.0
  0
LINE
  5
248
330
1F
100
AcDbEntity
  8
0
  6
PHANTOM
 62
     8
370
     0
100
AcDbLine
 10
282.2705969063
 20
1204.3292000259
 30
0.0
 11
282.2705969063
 21
1669.3292036022
 31
0.0
  0
ARC
  5
249
330
1F
100
AcDbEntity
  8
0
  6
PHANTOM
 62
     8
370
     0
100
AcDbCircle
 10
305.2705749718
 20
1204.329199549
 30
0.0
 40
23.00000000000006
100
AcDbArc
 50
180.0
 51
270.0
  0
LINE
  5
24A
330
1F
100
AcDbEntity
  8
0
  6
PHANTOM
 62
     8
370
     0
100
AcDbLine
 10
1355.27055113
 20
1181.3291981185
 30
0.0
 11
305.2705988137
 21
1181.3291981185
 31
0.0
  0
ARC
  5
24B
330
1F
100
AcDbEntity
  8
0
  6
PHANTOM
 62
     8
370
     0
100
AcDbCircle
 10
1355.2705749718
 20
1204.329199549
 30
0.0
 40
23.00000000000023
100
AcDbArc
 50
270.0
 51
0.0
  0
LINE
  5
24C
330
1F
100
AcDbEntity
  8
0
  6
PHANTOM
 62
     8
370
     0
100
AcDbLine
 10
1378.2705530373
 20
1669.3292036022
 30
0.0
 11
1378.2705530373
 21
1204.3292000259
 31
0.0
  0
ARC
  5
24D
330
1F
100
AcDbEntity
  8
0
  6
PHANTOM
 62
     8
370
     0
100
AcDbCircle
 10
1355.2705749718
 20
1669.329199549
 30
0.0
 40
23.0
100
AcDbArc
 50
0.0
 51
90.0
  0
LINE
  5
24E
330
1F
100
AcDbEntity
  8
0
  6
PHANTOM
 62
     8
370
     0
100
AcDbLine
 10
1025.2705678193
 20
1692.3292055095
 30
0.0
 11
1355.27055113
 21
1692.3292055095
 31
0.0
  0
ARC
  5
24F
330
1F
100
AcDbEntity
  8
0
  6
PHANTOM
 62
     8
370
     0
100
AcDbCircle
 10
1025.2705749718
 20
1669.329199549
 30
0.0
 40
23.00000000000023
100
AcDbArc
 50
90.0
 51
180.0
  0
LINE
  5
250
330
1F
100
AcDbEntity
  8
0
  6
PHANTOM
 62
     8
370
     0
100
AcDbLine
 10
1002.2705808131
 20
1629.3291970456
 30
0.0
 11
1002.2705808131
 21
1669.3292036022
 31
0.0
  0
ARC
  5
251
330
1F
100
AcDbEntity
  8
0
  6
PHANTOM
 62
     8
370
     0
100
AcDbCircle
 10
985.2705749718
 20
1629.329199549
 30
0.0
 40
17.0
100
AcDbArc
 50
270.0
 51
0.0
  0
LINE
  5
252
330
1F
100
AcDbEntity
  8
0
  6
PHANTOM
 62
     8
370
     0
100
AcDbLine
 10
675.2705737797
 20
1612.3291923965
 30
0.0
 11
985.2705761639
 21
1612.3291923965
 31
0.0
  0
ARC
  5
253
330
1F
100
AcDbEntity
  8
0
  6
PHANTOM
 62
     8
370
     0
100
AcDbCircle
 10
675.2705749718
 20
1629.329199549
 30
0.0
 40
16.99999999999989
100
AcDbArc
 50
180.0
 51
270.0
  0
LINE
  5
254
330
1F
100
AcDbEntity
  8
0
  6
PHANTOM
 62
     8
370
     0
100
AcDbLine
 10
658.2705691306
 20
1669.3292036022
 30
0.0
 11
658.2705691306
 21
1629.3291970456
 31
0.0
  0
ARC
  5
255
330
1F
100
AcDbEntity
  8
0
  6
PHANTOM
 62
     8
370
     0
100
AcDbCircle
 10
635.2705749718
 20
1669.329199549
 30
0.0
 40
23.00000000000011
100
AcDbArc
 50
0.0
 51
90.0
  0
LINE
  5
256
330
1F
100
AcDbEntity
  8
0
  6
PHANTOM
 62
     8
370
     0
100
AcDbLine
 10
305.2705988137
 20
1692.3292055095
 30
0.0
 11
635.2705821244
 21
1692.3292055095
 31
0.0
  0
LINE
  5
257
330
1F
100
AcDbEntity
  8
0
  6
PHANTOM
 62
     8
370
     0
100
AcDbLine
 10
655.270577952
 20
1669.3292036022
 30
0.0
 11
658.2705691306
 21
1669.3292036022
 31
0.0
  0
LINE
  5
258
330
1F
100
AcDbEntity
  8
0
  6
PHANTOM
 62
     8
370
     0
100
AcDbLine
 10
635.2705821244
 20
1692.3292055095
 30
0.0
 11
635.2705821244
 21
1689.329214331
 31
0.0
  0
LINE
  5
259
330
1F
100
AcDbEntity
  8
0
  6
PHANTOM
 62
     8
370
     0
100
AcDbLine
 10
1025.2705678193
 20
1689.329214331
 30
0.0
 11
1025.2705678193
 21
1692.3292055095
 31
0.0
  0
LINE
  5
25A
330
1F
100
AcDbEntity
  8
0
  6
PHANTOM
 62
     8
370
     0
100
AcDbLine
 10
1355.27055113
 20
1689.329214331
 30
0.0
 11
1355.27055113
 21
1692.3292055095
 31
0.0
  0
LINE
  5
25B
330
1F
100
AcDbEntity
  8
0
  6
PHANTOM
 62
     8
370
     0
100
AcDbLine
 10
305.2705988137
 20
1692.3292055095
 30
0.0
 11
305.2705988137
 21
1689.329214331
 31
0.0
  0
LINE
  5
25C
330
1F
100
AcDbEntity
  8
0
  6
PHANTOM
 62
     8
370
     0
100
AcDbLine
 10
1005.2705719916
 20
1669.3292036022
 30
0.0
 11
1002.2705808131
 21
1669.3292036022
 31
0.0
  0
LINE
  5
25D
330
1F
100
AcDbEntity
  8
0
  6
PHANTOM
 62
     8
370
     0
100
AcDbLine
 10
282.2705969063
 20
1669.3292036022
 30
0.0
 11
285.2705582825
 21
1669.3292036022
 31
0.0
  0
LINE
  5
25E
330
1F
100
AcDbEntity
  8
0
  6
PHANTOM
 62
     8
370
     0
100
AcDbLine
 10
1378.2705530373
 20
1669.3292036022
 30
0.0
 11
1375.2705916611
 21
1669.3292036022
 31
0.0
  0
LINE
  5
25F
330
1F
100
AcDbEntity
  8
0
  6
PHANTOM
 62
     8
370
     0
100
AcDbLine
 10
655.270577952
 20
1629.3291970456
 30
0.0
 11
658.2705691306
 21
1629.3291970456
 31
0.0
  0
LINE
  5
260
330
1F
100
AcDbEntity
  8
0
  6
PHANTOM
 62
     8
370
     0
100
AcDbLine
 10
1005.2705719916
 20
1629.3291970456
 30
0.0
 11
1002.2705808131
 21
1629.3291970456
 31
0.0
  0
LINE
  5
261
330
1F
100
AcDbEntity
  8
0
  6
PHANTOM
 62
     8
370
     0
100
AcDbLine
 10
1378.2705530373
 20
1204.3292000259
 30
0.0
 11
1375.2705916611
 21
1204.3292000259
 31
0.0
  0
LINE
  5
262
330
1F
100
AcDbEntity
  8
0
  6
PHANTOM
 62
     8
370
     0
100
AcDbLine
 10
282.2705969063
 20
1204.3292000259
 30
0.0
 11
285.2705582825
 21
1204.3292000259
 31
0.0
  0
LINE
  5
263
330
1F
100
AcDbEntity
  8
0
  6
PHANTOM
 62
     8
370
     0
100
AcDbLine
 10
675.2705737797
 20
1609.329201218
 30
0.0
 11
675.2705737797
 21
1612.3291923965
 31
0.0
  0
LINE
  5
264
330
1F
100
AcDbEntity
  8
0
  6
PHANTOM
 62
     8
370
     0
100
AcDbLine
 10
985.2705761639
 20
1609.329201218
 30
0.0
 11
985.2705761639
 21
1612.3291923965
 31
0.0
  0
ARC
  5
265
330
1F
100
AcDbEntity
  8
0
  6
PHANTOM
 62
     8
370
     0
100
AcDbCircle
 10
1355.2705749718
 20
1204.329199549
 30
0.0
 40
50.02541546907969
100
AcDbArc
 50
270.0
 51
0.0
  0
LINE
  5
266
330
1F
100
AcDbEntity
  8
0
  6
PHANTOM
 62
     8
370
     0
100
AcDbLine
 10
1355.27055113
 20
1157.2979166473
 30
0.0
 11
1355.27055113
 21
1154.3037965263
 31
0.0
  0
LINE
  5
267
330
1F
100
AcDbEntity
  8
0
  6
PHANTOM
 62
     8
370
     0
100
AcDbLine
 10
1355.27055113
 20
1181.3291981185
 30
0.0
 11
1355.27055113
 21
1184.3292041982
 31
0.0
  0
LINE
  5
268
330
1F
100
AcDbEntity
  8
0
  6
PHANTOM
 62
     8
370
     0
100
AcDbLine
 10
305.2705988137
 20
1181.3291981185
 30
0.0
 11
305.2705988137
 21
1184.3292041982
 31
0.0
  0
LINE
  5
269
330
1F
100
AcDbEntity
  8
0
  6
PHANTOM
 62
     8
370
     0
100
AcDbLine
 10
305.2705988137
 20
1157.2979166473
 30
0.0
 11
305.2705988137
 21
1154.3037965263
 31
0.0
  0
ARC
  5
26A
330
1F
100
AcDbEntity
  8
0
  6
PHANTOM
 62
     8
370
     0
100
AcDbCircle
 10
305.2705749718
 20
1204.329199549
 30
0.0
 40
50.0254154690796
100
AcDbArc
 50
180.0
 51
270.0
  0
LINE
  5
26B
330
1F
100
AcDbEntity
  8
0
  6
PHANTOM
 62
     8
370
     0
100
AcDbLine
 10
1355.27055113
 20
1154.3037965263
 30
0.0
 11
305.2705988137
 21
1154.3037965263
 31
0.0
  0
LINE
  5
26C
330
1F
100
AcDbEntity
  8
0
  6
PHANTOM
 62
     8
370
     0
100
AcDbLine
 10
1418.270574495
 20
1719.3291857208
 30
0.0
 11
1418.270574495
 21
1204.3292000259
 31
0.0
  0
LINE
  5
26D
330
1F
100
AcDbEntity
  8
0
  6
PHANTOM
 62
     8
370
     0
100
AcDbLine
 10
1418.270574495
 20
1204.3292000259
 30
0.0
 11
1405.2960142342
 21
1204.3292000259
 31
0.0
  0
LINE
  5
26E
330
1F
100
AcDbEntity
  8
0
  6
PHANTOM
 62
     8
370
     0
100
AcDbLine
 10
242.2705754487
 20
1204.3292000259
 30
0.0
 11
242.2705754487
 21
1719.3291857208
 31
0.0
  0
LINE
  5
26F
330
1F
100
AcDbEntity
  8
0
  6
PHANTOM
 62
     8
370
     0
100
AcDbLine
 10
255.2451357094
 20
1204.3292000259
 30
0.0
 11
242.2705754487
 21
1204.3292000259
 31
0.0
  0
ARC
  5
270
330
1F
100
AcDbEntity
  8
0
  6
PHANTOM
 62
     8
370
     0
100
AcDbCircle
 10
1355.2705749718
 20
1204.329199549
 30
0.0
 40
63.00000000000023
100
AcDbArc
 50
270.0
 51
0.0
  0
LINE
  5
271
330
1F
100
AcDbEntity
  8
0
  6
PHANTOM
 62
     8
370
     0
100
AcDbLine
 10
1355.27055113
 20
1141.3292064632
 30
0.0
 11
1355.27055113
 21
1154.3037965263
 31
0.0
  0
ARC
  5
272
330
1F
100
AcDbEntity
  8
0
  6
PHANTOM
 62
     8
370
     0
100
AcDbCircle
 10
305.2705749718
 20
1204.329199549
 30
0.0
 40
63.00000000000009
100
AcDbArc
 50
180.0
 51
270.0
  0
LINE
  5
273
330
1F
100
AcDbEntity
  8
0
  6
PHANTOM
 62
     8
370
     0
100
AcDbLine
 10
305.2705988137
 20
1141.3292064632
 30
0.0
 11
305.2705988137
 21
1154.3037965263
 31
0.0
  0
LINE
  5
274
330
1F
100
AcDbEntity
  8
0
  6
PHANTOM
 62
     8
370
     0
100
AcDbLine
 10
1355.27055113
 20
1141.3292064632
 30
0.0
 11
305.2705988137
 21
1141.3292064632
 31
0.0
  0
ARC
  5
275
330
1F
100
AcDbEntity
  8
0
  6
PHANTOM
 62
     8
370
     0
100
AcDbCircle
 10
635.2705749718
 20
1669.329199549
 30
0.0
 40
15.00000000000011
100
AcDbArc
 50
0.0
 51
90.0
  0
LINE
  5
276
330
1F
100
AcDbEntity
  8
0
  6
PHANTOM
 62
     8
370
     0
100
AcDbLine
 10
635.2705821244
 20
1689.329214331
 30
0.0
 11
635.2705821244
 21
1684.329189297
 31
0.0
  0
LINE
  5
277
330
1F
100
AcDbEntity
  8
0
  6
PHANTOM
 62
     8
370
     0
100
AcDbLine
 10
650.2705678193
 20
1669.3292036022
 30
0.0
 11
655.270577952
 21
1669.3292036022
 31
0.0
  0
LINE
  5
278
330
1F
100
AcDbEntity
  8
0
  6
PHANTOM
 62
     8
370
     0
100
AcDbLine
 10
305.2705988137
 20
1689.329214331
 30
0.0
 11
305.2705988137
 21
1684.329189297
 31
0.0
  0
ARC
  5
279
330
1F
100
AcDbEntity
  8
0
  6
PHANTOM
 62
     8
370
     0
100
AcDbCircle
 10
305.2705749718
 20
1669.329199549
 30
0.0
 40
15.00000000000006
100
AcDbArc
 50
90.0
 51
180.0
  0
LINE
  5
27A
330
1F
100
AcDbEntity
  8
0
  6
PHANTOM
 62
     8
370
     0
100
AcDbLine
 10
285.2705582825
 20
1669.3292036022
 30
0.0
 11
290.2705535141
 21
1669.3292036022
 31
0.0
  0
LINE
  5
27B
330
1F
100
AcDbEntity
  8
0
  6
PHANTOM
 62
     8
370
     0
100
AcDbLine
 10
1355.27055113
 20
1684.329189297
 30
0.0
 11
1025.2705678193
 21
1684.329189297
 31
0.0
  0
LINE
  5
27C
330
1F
100
AcDbEntity
  8
0
  6
PHANTOM
 62
     8
370
     0
100
AcDbLine
 10
1025.2705678193
 20
1684.329189297
 30
0.0
 11
1025.2705678193
 21
1689.329214331
 31
0.0
  0
LINE
  5
27D
330
1F
100
AcDbEntity
  8
0
  6
PHANTOM
 62
     8
370
     0
100
AcDbLine
 10
1355.27055113
 20
1684.329189297
 30
0.0
 11
1355.27055113
 21
1689.329214331
 31
0.0
  0
ARC
  5
27E
330
1F
100
AcDbEntity
  8
0
  6
PHANTOM
 62
     8
370
     0
100
AcDbCircle
 10
1025.2705749718
 20
1669.329199549
 30
0.0
 40
15.00000000000023
100
AcDbArc
 50
90.0
 51
180.0
  0
LINE
  5
27F
330
1F
100
AcDbEntity
  8
0
  6
PHANTOM
 62
     8
370
     0
100
AcDbLine
 10
1010.2705821244
 20
1669.3292036022
 30
0.0
 11
1005.2705719916
 21
1669.3292036022
 31
0.0
  0
ARC
  5
280
330
1F
100
AcDbEntity
  8
0
  6
PHANTOM
 62
     8
370
     0
100
AcDbCircle
 10
1355.2705749718
 20
1669.329199549
 30
0.0
 40
15.0
100
AcDbArc
 50
0.0
 51
90.0
  0
LINE
  5
281
330
1F
100
AcDbEntity
  8
0
  6
PHANTOM
 62
     8
370
     0
100
AcDbLine
 10
1375.2705916611
 20
1669.3292036022
 30
0.0
 11
1370.2705964295
 21
1669.3292036022
 31
0.0
  0
LINE
  5
282
330
1F
100
AcDbEntity
  8
0
  6
PHANTOM
 62
     8
370
     0
100
AcDbLine
 10
635.2705821244
 20
1684.329189297
 30
0.0
 11
305.2705988137
 21
1684.329189297
 31
0.0
  0
LINE
  5
283
330
1F
100
AcDbEntity
  8
0
  6
PHANTOM
 62
     8
370
     0
100
AcDbLine
 10
650.2705678193
 20
1629.3291970456
 30
0.0
 11
650.2705678193
 21
1669.3292036022
 31
0.0
  0
LINE
  5
284
330
1F
100
AcDbEntity
  8
0
  6
PHANTOM
 62
     8
370
     0
100
AcDbLine
 10
650.2705678193
 20
1629.3291970456
 30
0.0
 11
655.270577952
 21
1629.3291970456
 31
0.0
  0
LINE
  5
285
330
1F
100
AcDbEntity
  8
0
  6
PHANTOM
 62
     8
370
     0
100
AcDbLine
 10
1010.2705821244
 20
1669.3292036022
 30
0.0
 11
1010.2705821244
 21
1629.3291970456
 31
0.0
  0
LINE
  5
286
330
1F
100
AcDbEntity
  8
0
  6
PHANTOM
 62
     8
370
     0
100
AcDbLine
 10
1010.2705821244
 20
1629.3291970456
 30
0.0
 11
1005.2705719916
 21
1629.3291970456
 31
0.0
  0
LINE
  5
287
330
1F
100
AcDbEntity
  8
0
  6
PHANTOM
 62
     8
370
     0
100
AcDbLine
 10
290.2705535141
 20
1669.3292036022
 30
0.0
 11
290.2705535141
 21
1204.3292000259
 31
0.0
  0
LINE
  5
288
330
1F
100
AcDbEntity
  8
0
  6
PHANTOM
 62
     8
370
     0
100
AcDbLine
 10
285.2705582825
 20
1204.3292000259
 30
0.0
 11
290.2705535141
 21
1204.3292000259
 31
0.0
  0
LINE
  5
289
330
1F
100
AcDbEntity
  8
0
  6
PHANTOM
 62
     8
370
     0
100
AcDbLine
 10
1375.2705916611
 20
1204.3292000259
 30
0.0
 11
1370.2705964295
 21
1204.3292000259
 31
0.0
  0
LINE
  5
28A
330
1F
100
AcDbEntity
  8
0
  6
PHANTOM
 62
     8
370
     0
100
AcDbLine
 10
1370.2705964295
 20
1204.3292000259
 30
0.0
 11
1370.2705964295
 21
1669.3292036022
 31
0.0
  0
ARC
  5
28B
330
1F
100
AcDbEntity
  8
0
  6
PHANTOM
 62
     8
370
     0
100
AcDbCircle
 10
675.2705749718
 20
1629.329199549
 30
0.0
 40
24.99999999999989
100
AcDbArc
 50
180.0
 51
270.0
  0
LINE
  5
28C
330
1F
100
AcDbEntity
  8
0
  6
PHANTOM
 62
     8
370
     0
100
AcDbLine
 10
675.2705737797
 20
1604.3292059863
 30
0.0
 11
675.2705737797
 21
1609.329201218
 31
0.0
  0
ARC
  5
28D
330
1F
100
AcDbEntity
  8
0
  6
PHANTOM
 62
     8
370
     0
100
AcDbCircle
 10
985.2705749718
 20
1629.329199549
 30
0.0
 40
25.0
100
AcDbArc
 50
270.0
 51
0.0
  0
LINE
  5
28E
330
1F
100
AcDbEntity
  8
0
  6
PHANTOM
 62
     8
370
     0
100
AcDbLine
 10
985.2705761639
 20
1604.3292059863
 30
0.0
 11
985.2705761639
 21
1609.329201218
 31
0.0
  0
LINE
  5
28F
330
1F
100
AcDbEntity
  8
0
  6
PHANTOM
 62
     8
370
     0
100
AcDbLine
 10
985.2705761639
 20
1604.3292059863
 30
0.0
 11
675.2705737797
 21
1604.3292059863
 31
0.0
  0
ARC
  5
290
330
1F
100
AcDbEntity
  8
0
  6
PHANTOM
 62
     8
370
     0
100
AcDbCircle
 10
305.2705749718
 20
1204.329199549
 30
0.0
 40
15.00000000000006
100
AcDbArc
 50
180.0
 51
270.0
  0
LINE
  5
291
330
1F
100
AcDbEntity
  8
0
  6
PHANTOM
 62
     8
370
     0
100
AcDbLine
 10
305.2705988137
 20
1184.3292041982
 30
0.0
 11
305.2705988137
 21
1189.3291994298
 31
0.0
  0
LINE
  5
292
330
1F
100
AcDbEntity
  8
0
  6
PHANTOM
 62
     8
370
     0
100
AcDbLine
 10
1355.27055113
 20
1184.3292041982
 30
0.0
 11
1355.27055113
 21
1189.3291994298
 31
0.0
  0
ARC
  5
293
330
1F
100
AcDbEntity
  8
0
  6
PHANTOM
 62
     8
370
     0
100
AcDbCircle
 10
1355.2705749718
 20
1204.329199549
 30
0.0
 40
15.00000000000023
100
AcDbArc
 50
270.0
 51
0.0
  0
LINE
  5
294
330
1F
100
AcDbEntity
  8
0
  6
PHANTOM
 62
     8
370
     0
100
AcDbLine
 10
305.2705988137
 20
1189.3291994298
 30
0.0
 11
1355.27055113
 21
1189.3291994298
 31
0.0
  0
ARC
  5
295
330
1F
100
AcDbEntity
  8
0
  6
PHANTOM
 62
     8
370
     0
100
AcDbCircle
 10
737.8478329841
 20
1399.329199549
 30
0.0
 40
141.6828963452581
100
AcDbArc
 50
128.5460066902
 51
231.4539933098
  0
ARC
  5
296
330
1F
100
AcDbEntity
  8
0
  6
PHANTOM
 62
     8
370
     0
100
AcDbCircle
 10
830.2705749718
 20
1515.329199549
 30
0.0
 40
289.9999999999998
100
AcDbArc
 50
231.4539933098
 51
308.5460066902
  0
ARC
  5
297
330
1F
100
AcDbEntity
  8
0
  6
PHANTOM
 62
     8
370
     0
100
AcDbCircle
 10
922.6933169596
 20
1399.329199549
 30
0.0
 40
141.682896345258
100
AcDbArc
 50
308.5460066902
 51
51.4539933098
  0
ARC
  5
298
330
1F
100
AcDbEntity
  8
0
  6
PHANTOM
 62
     8
370
     0
100
AcDbCircle
 10
830.2705749718
 20
1283.329199549
 30
0.0
 40
290.0000000000001
100
AcDbArc
 50
51.4539933098
 51
128.5460066902
  0
LWPOLYLINE
  5
299
330
1F
100
AcDbEntity
  8
0
  6
PHANTOM
 62
     8
370
     0
100
AcDbPolyline
 90
       11
 70
   128
 43
0.0
 10
1010.9819933621
 20
1510.140530702
 10
1009.5197871176
 20
1508.3053036893
 10
1008.0935671774
 20
1506.515264448
 10
1006.7384853808
 20
1504.8144906128
 10
1005.4878905264
 20
1503.2448618973
 10
1004.3725684134
 20
1501.845024463
 10
1003.4199967829
 20
1500.6494521464
 10
1002.6536300627
 20
1499.6875821913
 10
1002.0923331229
 20
1498.9830999935
 10
1001.749934241
 20
1498.5533505047
 10
1001.6348525731
 20
1498.4089135493
  0
LWPOLYLINE
  5
29A
330
1F
100
AcDbEntity
  8
0
  6
PHANTOM
 62
     8
370
     0
100
AcDbPolyline
 90
       11
 70
   128
 43
0.0
 10
649.5591565815
 20
1510.140530702
 10
651.021362826
 20
1508.3053036893
 10
652.4475827662
 20
1506.515264448
 10
653.8026645628
 20
1504.8144906128
 10
655.0532594172
 20
1503.2448618973
 10
656.1685815302
 20
1501.845024463
 10
657.1211531607
 20
1500.6494521464
 10
657.8875198809
 20
1499.6875821913
 10
658.4488168208
 20
1498.9830999935
 10
658.7912157027
 20
1498.5533505047
 10
658.9062973706
 20
1498.4089135493
  0
LWPOLYLINE
  5
29B
330
1F
100
AcDbEntity
  8
0
  6
PHANTOM
 62
     8
370
     0
100
AcDbPolyline
 90
       11
 70
   128
 43
0.0
 10
1001.6348525731
 20
1300.2494870985
 10
1001.749934241
 20
1300.1050501431
 10
1002.0923331229
 20
1299.6753006543
 10
1002.6536300627
 20
1298.9708184565
 10
1003.4199967829
 20
1298.0089485014
 10
1004.3725684134
 20
1296.8133761848
 10
1005.4878905264
 20
1295.4135387505
 10
1006.7384853808
 20
1293.843910035
 10
1008.0935671774
 20
1292.1431436504
 10
1009.5197871176
 20
1290.3530969585
 10
1010.9819933621
 20
1288.5178699458
  0
LWPOLYLINE
  5
29C
330
1F
100
AcDbEntity
  8
0
  6
PHANTOM
 62
     8
370
     0
100
AcDbPolyline
 90
       11
 70
   128
 43
0.0
 10
658.9062973706
 20
1300.2494870985
 10
658.7912157027
 20
1300.1050501431
 10
658.4488168208
 20
1299.6753006543
 10
657.8875198809
 20
1298.9708184565
 10
657.1211531607
 20
1298.0089485014
 10
656.1685815302
 20
1296.8133761848
 10
655.0532594172
 20
1295.4135387505
 10
653.8026645628
 20
1293.843910035
 10
652.4475827662
 20
1292.1431436504
 10
651.021362826
 20
1290.3530969585
 10
649.5591565815
 20
1288.5178699458
  0
LINE
  5
29D
330
1F
100
AcDbEntity
  8
0
  6
PHANTOM
 62
     8
370
     0
100
AcDbLine
 10
242.2705754487
 20
1204.3292000259
 30
0.0
 11
230.27055113
 21
1204.3292000259
 31
0.0
  0
LINE
  5
29E
330
1F
100
AcDbEntity
  8
0
  6
PHANTOM
 62
     8
370
     0
100
AcDbLine
 10
1430.2705988137
 20
1204.3292000259
 30
0.0
 11
1418.270574495
 21
1204.3292000259
 31
0.0
  0
LINE
  5
29F
330
1F
100
AcDbEntity
  8
0
  6
PHANTOM
 62
     8
370
     0
100
AcDbLine
 10
305.2705988137
 20
1129.3292119468
 30
0.0
 11
305.2705988137
 21
1141.3292064632
 31
0.0
  0
LINE
  5
2A0
330
1F
100
AcDbEntity
  8
0
  6
PHANTOM
 62
     8
370
     0
100
AcDbLine
 10
1355.27055113
 20
1129.3292119468
 30
0.0
 11
1355.27055113
 21
1141.3292064632
 31
0.0
  0
ENDSEC
  0
SECTION
  2
OBJECTS
  0
DICTIONARY
  5
C
330
0
100
AcDbDictionary
281
     1
  3
ACAD_GROUP
350
D
  3
ACAD_LAYOUT
350
1A
  3
ACAD_MLINESTYLE
350
17
  3
ACAD_PLOTSETTINGS
350
19
  3
ACAD_PLOTSTYLENAME
350
E
  3
ACAD_SCALELIST
350
47
  0
DICTIONARY
  5
D
102
{ACAD_REACTORS
330
C
102
}
330
C
100
AcDbDictionary
281
     1
  0
DICTIONARY
  5
1A
102
{ACAD_REACTORS
330
C
102
}
330
C
100
AcDbDictionary
281
     1
  3
Layout1
350
1E
  3
Layout2
350
26
  3
Model
350
22
  0
DICTIONARY
  5
17
102
{ACAD_REACTORS
330
C
102
}
330
C
100
AcDbDictionary
281
     1
  3
Standard
350
18
  0
DICTIONARY
  5
19
102
{ACAD_REACTORS
330
C
102
}
330
C
100
AcDbDictionary
281
     1
  0
ACDBDICTIONARYWDFLT
  5
E
102
{ACAD_REACTORS
330
C
102
}
330
C
100
AcDbDictionary
281
     1
  3
Normal
350
F
100
AcDbDictionaryWithDefault
340
F
  0
DICTIONARY
  5
47
102
{ACAD_REACTORS
330
C
102
}
330
C
100
AcDbDictionary
281
     1
  3
A0
350
48
  3
A1
350
49
  3
A2
350
4A
  3
A3
350
4B
  3
A4
350
4C
  3
A5
350
4D
  3
A6
350
4E
  3
A7
350
4F
  3
A8
350
50
  3
A9
350
51
  3
B0
350
52
  3
B1
350
53
  3
B2
350
54
  3
B3
350
55
  3
B4
350
56
  3
B5
350
57
  3
B6
350
58
  3
B7
350
59
  3
B8
350
5A
  3
B9
350
5B
  3
C0
350
5C
  3
C1
350
5D
  3
C2
350
5E
  3
C3
350
5F
  3
C4
350
60
  3
C5
350
61
  3
C6
350
62
  3
C7
350
63
  3
C8
350
64
  3
C9
350
65
  3
D0
350
66
  3
D1
350
67
  3
D2
350
68
  0
LAYOUT
  5
1E
102
{ACAD_REACTORS
330
1A
102
}
330
1A
100
AcDbPlotSettings
  1

  2
none_device
  4

  6

 40
0.0
 41
0.0
 42
0.0
 43
0.0
 44
0.0
 45
0.0
 46
0.0
 47
0.0
 48
0.0
 49
0.0
140
0.0
141
0.0
142
1.0
143
1.0
 70
   688
 72
     1
 73
     0
 74
     5
  7

 75
    16
147
1.0
148
0.0
149
0.0
100
AcDbLayout
  1
Layout1
 70
     1
 71
     1
 10
0.0
 20
0.0
 11
420.0
 21
297.0
 12
0.0
 22
0.0
 32
0.0
 14
1.0000000000E+20
 24
1.0000000000E+20
 34
1.0000000000E+20
 15
-1.0000000000E+20
 25
-1.0000000000E+20
 35
-1.0000000000E+20
146
0.0
 13
0.0
 23
0.0
 33
0.0
 16
1.0
 26
0.0
 36
0.0
 17
0.0
 27
1.0
 37
0.0
 76
     0
330
1B
  0
LAYOUT
  5
26
102
{ACAD_REACTORS
330
1A
102
}
330
1A
100
AcDbPlotSettings
  1

  2
none_device
  4

  6

 40
0.0
 41
0.0
 42
0.0
 43
0.0
 44
0.0
 45
0.0
 46
0.0
 47
0.0
 48
0.0
 49
0.0
140
0.0
141
0.0
142
1.0
143
1.0
 70
   688
 72
     1
 73
     0
 74
     5
  7

 75
    16
147
1.0
148
0.0
149
0.0
100
AcDbLayout
  1
Layout2
 70
     1
 71
     2
 10
0.0
 20
0.0
 11
0.0
 21
0.0
 12
0.0
 22
0.0
 32
0.0
 14
0.0
 24
0.0
 34
0.0
 15
0.0
 25
0.0
 35
0.0
146
0.0
 13
0.0
 23
0.0
 33
0.0
 16
1.0
 26
0.0
 36
0.0
 17
0.0
 27
1.0
 37
0.0
 76
     0
330
23
  0
LAYOUT
  5
22
102
{ACAD_REACTORS
330
1A
102
}
330
1A
100
AcDbPlotSettings
  1

  2
none_device
  4
Letter_(8.50_x_11.00_Inches)
  6

 40
6.35
 41
6.35
 42
6.35000508
 43
6.35000508
 44
215.9
 45
279.4
 46
0.0
 47
0.0
 48
0.0
 49
0.0
140
0.0
141
0.0
142
1.0
143
1.0
 70
  1712
 72
     1
 73
     0
 74
     0
  7

 75
     0
147
1.0
148
0.0
149
0.0
100
AcDbLayout
  1
Model
 70
     1
 71
     0
 10
0.0
 20
0.0
 11
2500.0
 21
2000.0
 12
0.0
 22
0.0
 32
0.0
 14
0.0
 24
0.0
 34
0.0
 15
2500.0
 25
2000.0
 35
0.0
146
0.0
 13
0.0
 23
0.0
 33
0.0
 16
1.0
 26
0.0
 36
0.0
 17
0.0
 27
1.0
 37
0.0
 76
     0
330
1F
331
29
  0
MLINESTYLE
  5
18
102
{ACAD_REACTORS
330
17
102
}
330
17
100
AcDbMlineStyle
  2
Standard
 70
     0
  3

 62
   256
 51
90.0
 52
90.0
 71
     2
 49
0.5
 62
   256
  6
BYLAYER
 49
-0.5
 62
   256
  6
BYLAYER
  0
ACDBPLACEHOLDER
  5
F
102
{ACAD_REACTORS
330
E
102
}
330
E
  0
SCALE
  5
48
102
{ACAD_REACTORS
330
47
102
}
330
47
100
AcDbScale
 70
     0
300
1:1
140
1.0
141
1.0
290
     1
  0
SCALE
  5
49
102
{ACAD_REACTORS
330
47
102
}
330
47
100
AcDbScale
 70
     0
300
1:2
140
1.0
141
2.0
290
     0
  0
SCALE
  5
4A
102
{ACAD_REACTORS
330
47
102
}
330
47
100
AcDbScale
 70
     0
300
1:4
140
1.0
141
4.0
290
     0
  0
SCALE
  5
4B
102
{ACAD_REACTORS
330
47
102
}
330
47
100
AcDbScale
 70
     0
300
1:5
140
1.0
141
5.0
290
     0
  0
SCALE
  5
4C
102
{ACAD_REACTORS
330
47
102
}
330
47
100
AcDbScale
 70
     0
300
1:8
140
1.0
141
8.0
290
     0
  0
SCALE
  5
4D
102
{ACAD_REACTORS
330
47
102
}
330
47
100
AcDbScale
 70
     0
300
1:10
140
1.0
141
10.0
290
     0
  0
SCALE
  5
4E
102
{ACAD_REACTORS
330
47
102
}
330
47
100
AcDbScale
 70
     0
300
1:16
140
1.0
141
16.0
290
     0
  0
SCALE
  5
4F
102
{ACAD_REACTORS
330
47
102
}
330
47
100
AcDbScale
 70
     0
300
1:20
140
1.0
141
20.0
290
     0
  0
SCALE
  5
50
102
{ACAD_REACTORS
330
47
102
}
330
47
100
AcDbScale
 70
     0
300
1:30
140
1.0
141
30.0
290
     0
  0
SCALE
  5
51
102
{ACAD_REACTORS
330
47
102
}
330
47
100
AcDbScale
 70
     0
300
1:40
140
1.0
141
40.0
290
     0
  0
SCALE
  5
52
102
{ACAD_REACTORS
330
47
102
}
330
47
100
AcDbScale
 70
     0
300
1:50
140
1.0
141
50.0
290
     0
  0
SCALE
  5
53
102
{ACAD_REACTORS
330
47
102
}
330
47
100
AcDbScale
 70
     0
300
1:100
140
1.0
141
100.0
290
     0
  0
SCALE
  5
54
102
{ACAD_REACTORS
330
47
102
}
330
47
100
AcDbScale
 70
     0
300
2:1
140
2.0
141
1.0
290
     0
  0
SCALE
  5
55
102
{ACAD_REACTORS
330
47
102
}
330
47
100
AcDbScale
 70
     0
300
4:1
140
4.0
141
1.0
290
     0
  0
SCALE
  5
56
102
{ACAD_REACTORS
330
47
102
}
330
47
100
AcDbScale
 70
     0
300
8:1
140
8.0
141
1.0
290
     0
  0
SCALE
  5
57
102
{ACAD_REACTORS
330
47
102
}
330
47
100
AcDbScale
 70
     0
300
10:1
140
10.0
141
1.0
290
     0
  0
SCALE
  5
58
102
{ACAD_REACTORS
330
47
102
}
330
47
100
AcDbScale
 70
     0
300
100:1
140
100.0
141
1.0
290
     0
  0
SCALE
  5
59
102
{ACAD_REACTORS
330
47
102
}
330
47
100
AcDbScale
 70
     0
300
1/128" = 1'-0"
140
0.0078125
141
12.0
290
     0
  0
SCALE
  5
5A
102
{ACAD_REACTORS
330
47
102
}
330
47
100
AcDbScale
 70
     0
300
1/64" = 1'-0"
140
0.015625
141
12.0
290
     0
  0
SCALE
  5
5B
102
{ACAD_REACTORS
330
47
102
}
330
47
100
AcDbScale
 70
     0
300
1/32" = 1'-0"
140
0.03125
141
12.0
290
     0
  0
SCALE
  5
5C
102
{ACAD_REACTORS
330
47
102
}
330
47
100
AcDbScale
 70
     0
300
1/16" = 1'-0"
140
0.0625
141
12.0
290
     0
  0
SCALE
  5
5D
102
{ACAD_REACTORS
330
47
102
}
330
47
100
AcDbScale
 70
     0
300
3/32" = 1'-0"
140
0.09375
141
12.0
290
     0
  0
SCALE
  5
5E
102
{ACAD_REACTORS
330
47
102
}
330
47
100
AcDbScale
 70
     0
300
1/8" = 1'-0"
140
0.125
141
12.0
290
     0
  0
SCALE
  5
5F
102
{ACAD_REACTORS
330
47
102
}
330
47
100
AcDbScale
 70
     0
300
3/16" = 1'-0"
140
0.1875
141
12.0
290
     0
  0
SCALE
  5
60
102
{ACAD_REACTORS
330
47
102
}
330
47
100
AcDbScale
 70
     0
300
1/4" = 1'-0"
140
0.25
141
12.0
290
     0
  0
SCALE
  5
61
102
{ACAD_REACTORS
330
47
102
}
330
47
100
AcDbScale
 70
     0
300
3/8" = 1'-0"
140
0.375
141
12.0
290
     0
  0
SCALE
  5
62
102
{ACAD_REACTORS
330
47
102
}
330
47
100
AcDbScale
 70
     0
300
1/2" = 1'-0"
140
0.5
141
12.0
290
     0
  0
SCALE
  5
63
102
{ACAD_REACTORS
330
47
102
}
330
47
100
AcDbScale
 70
     0
300
3/4" = 1'-0"
140
0.75
141
12.0
290
     0
  0
SCALE
  5
64
102
{ACAD_REACTORS
330
47
102
}
330
47
100
AcDbScale
 70
     0
300
1" = 1'-0"
140
1.0
141
12.0
290
     0
  0
SCALE
  5
65
102
{ACAD_REACTORS
330
47
102
}
330
47
100
AcDbScale
 70
     0
300
1-1/2" = 1'-0"
140
1.5
141
12.0
290
     0
  0
SCALE
  5
66
102
{ACAD_REACTORS
330
47
102
}
330
47
100
AcDbScale
 70
     0
300
3" = 1'-0"
140
3.0
141
12.0
290
     0
  0
SCALE
  5
67
102
{ACAD_REACTORS
330
47
102
}
330
47
100
AcDbScale
 70
     0
300
6" = 1'-0"
140
6.0
141
12.0
290
     0
  0
SCALE
  5
68
102
{ACAD_REACTORS
330
47
102
}
330
47
100
AcDbScale
 70
     0
300
1'-0" = 1'-0"
140
12.0
141
12.0
290
     0
  0
ENDSEC
  0
EOF
