  0
SECTION
  2
HEADER
  9
$ACADVER
  1
AC1015
  9
$ACADMAINTVER
 70
     6
  9
$DWGCODEPAGE
  3
ANSI_1252
  9
$INSBASE
 10
0.0
 20
0.0
 30
0.0
  9
$EXTMIN
 10
0.0
 20
0.0
 30
0.0
  9
$EXTMAX
 10
2500.0
 20
2000.0
 30
0.0
  9
$LIMMIN
 10
0.0
 20
0.0
  9
$LIMMAX
 10
2500.0
 20
2000.0
  9
$ORTHOMODE
 70
     0
  9
$REGENMODE
 70
     1
  9
$FILLMODE
 70
     1
  9
$QTEXTMODE
 70
     0
  9
$MIRRTEXT
 70
     1
  9
$LTSCALE
 40
1.0
  9
$ATTMODE
 70
     1
  9
$TEXTSIZE
 40
3.5
  9
$TRACEWID
 40
1.0
  9
$TEXTSTYLE
  7
Standard
  9
$CLAYER
  8
0
  9
$CELTYPE
  6
ByLayer
  9
$CECOLOR
 62
   256
  9
$CELTSCALE
 40
1.0
  9
$DISPSILH
 70
     0
  9
$DIMSCALE
 40
1.0
  9
$DIMASZ
 40
3.302
  9
$DIMEXO
 40
1.0
  9
$DIMDLI
 40
3.75
  9
$DIMRND
 40
0.0
  9
$DIMDLE
 40
0.0
  9
$DIMEXE
 40
1.0
  9
$DIMTP
 40
0.0
  9
$DIMTM
 40
0.0
  9
$DIMTXT
 40
3.5
  9
$DIMCEN
 40
2.5
  9
$DIMTSZ
 40
0.0
  9
$DIMTOL
 70
     0
  9
$DIMLIM
 70
     0
  9
$DIMTIH
 70
     1
  9
$DIMTOH
 70
     1
  9
$DIMSE1
 70
     0
  9
$DIMSE2
 70
     0
  9
$DIMTAD
 70
     1
  9
$DIMZIN
 70
     0
  9
$DIMBLK
  1

  9
$DIMASO
 70
     1
  9
$DIMSHO
 70
     1
  9
$DIMPOST
  1

  9
$DIMAPOST
  1

  9
$DIMALT
 70
     0
  9
$DIMALTD
 70
     3
  9
$DIMALTF
 40
0.0393700787
  9
$DIMLFAC
 40
2.0
  9
$DIMTOFL
 70
     1
  9
$DIMTVP
 40
0.0
  9
$DIMTIX
 70
     0
  9
$DIMSOXD
 70
     0
  9
$DIMSAH
 70
     0
  9
$DIMBLK1
  1

  9
$DIMBLK2
  1

  9
$DIMSTYLE
  2
ISO-25
  9
$DIMCLRD
 70
     0
  9
$DIMCLRE
 70
     0
  9
$DIMCLRT
 70
     0
  9
$DIMTFAC
 40
1.0
  9
$DIMGAP
 40
1.524
  9
$DIMJUST
 70
     0
  9
$DIMSD1
 70
     0
  9
$DIMSD2
 70
     0
  9
$DIMTOLJ
 70
     0
  9
$DIMTZIN
 70
     0
  9
$DIMALTZ
 70
     0
  9
$DIMALTTZ
 70
     0
  9
$DIMUPT
 70
     0
  9
$DIMDEC
 70
     2
  9
$DIMTDEC
 70
     2
  9
$DIMALTU
 70
     2
  9
$DIMALTTD
 70
     3
  9
$DIMTXSTY
  7
Standard
  9
$DIMAUNIT
 70
     0
  9
$DIMADEC
 70
     2
  9
$DIMALTRND
 40
0.0
  9
$DIMAZIN
 70
     0
  9
$DIMDSEP
 70
    44
  9
$DIMATFIT
 70
     3
  9
$DIMFRAC
 70
     0
  9
$DIMLDRBLK
  1

  9
$DIMLUNIT
 70
     2
  9
$DIMLWD
 70
    -2
  9
$DIMLWE
 70
    -2
  9
$DIMTMOVE
 70
     0
  9
$LUNITS
 70
     2
  9
$LUPREC
 70
     2
  9
$SKETCHINC
 40
1.0
  9
$FILLETRAD
 40
10.0
  9
$AUNITS
 70
     0
  9
$AUPREC
 70
     2
  9
$MENU
  1
.
  9
$ELEVATION
 40
0.0
  9
$PELEVATION
 40
0.0
  9
$THICKNESS
 40
0.0
  9
$LIMCHECK
 70
     0
  9
$CHAMFERA
 40
0.0
  9
$CHAMFERB
 40
0.0
  9
$CHAMFERC
 40
0.0
  9
$CHAMFERD
 40
0.0
  9
$SKPOLY
 70
     0
  9
$TDCREATE
 40
2457077.708042303
  9
$TDUCREATE
 40
2457077.708042303
  9
$TDUPDATE
 40
2457077.708043009
  9
$TDUUPDATE
 40
2457077.708043009
  9
$TDINDWG
 40
0.0000000116
  9
$TDUSRTIMER
 40
0.0000000116
  9
$USRTIMER
 70
     1
  9
$ANGBASE
 50
0.0
  9
$ANGDIR
 70
     0
  9
$PDMODE
 70
     0
  9
$PDSIZE
 40
-1.0
  9
$PLINEWID
 40
0.0
  9
$SPLFRAME
 70
     0
  9
$SPLINETYPE
 70
     6
  9
$SPLINESEGS
 70
     8
  9
$HANDSEED
  5
1AD
  9
$SURFTAB1
 70
     6
  9
$SURFTAB2
 70
     6
  9
$SURFTYPE
 70
     6
  9
$SURFU
 70
     6
  9
$SURFV
 70
     6
  9
$UCSBASE
  2

  9
$UCSNAME
  2

  9
$UCSORG
 10
0.0
 20
0.0
 30
0.0
  9
$UCSXDIR
 10
1.0
 20
0.0
 30
0.0
  9
$UCSYDIR
 10
0.0
 20
1.0
 30
0.0
  9
$UCSORTHOREF
  2

  9
$UCSORTHOVIEW
 70
     0
  9
$UCSORGTOP
 10
0.0
 20
0.0
 30
0.0
  9
$UCSORGBOTTOM
 10
0.0
 20
0.0
 30
0.0
  9
$UCSORGLEFT
 10
0.0
 20
0.0
 30
0.0
  9
$UCSORGRIGHT
 10
0.0
 20
0.0
 30
0.0
  9
$UCSORGFRONT
 10
0.0
 20
0.0
 30
0.0
  9
$UCSORGBACK
 10
0.0
 20
0.0
 30
0.0
  9
$PUCSBASE
  2

  9
$PUCSNAME
  2

  9
$PUCSORG
 10
0.0
 20
0.0
 30
0.0
  9
$PUCSXDIR
 10
1.0
 20
0.0
 30
0.0
  9
$PUCSYDIR
 10
0.0
 20
1.0
 30
0.0
  9
$PUCSORTHOREF
  2

  9
$PUCSORTHOVIEW
 70
     0
  9
$PUCSORGTOP
 10
0.0
 20
0.0
 30
0.0
  9
$PUCSORGBOTTOM
 10
0.0
 20
0.0
 30
0.0
  9
$PUCSORGLEFT
 10
0.0
 20
0.0
 30
0.0
  9
$PUCSORGRIGHT
 10
0.0
 20
0.0
 30
0.0
  9
$PUCSORGFRONT
 10
0.0
 20
0.0
 30
0.0
  9
$PUCSORGBACK
 10
0.0
 20
0.0
 30
0.0
  9
$USERI1
 70
     0
  9
$USERI2
 70
     0
  9
$USERI3
 70
     0
  9
$USERI4
 70
     0
  9
$USERI5
 70
     0
  9
$USERR1
 40
0.0
  9
$USERR2
 40
0.0
  9
$USERR3
 40
0.0
  9
$USERR4
 40
0.0
  9
$USERR5
 40
0.0
  9
$WORLDVIEW
 70
     1
  9
$SHADEDGE
 70
     3
  9
$SHADEDIF
 70
    70
  9
$TILEMODE
 70
     1
  9
$MAXACTVP
 70
    64
  9
$PINSBASE
 10
0.0
 20
0.0
 30
0.0
  9
$PLIMCHECK
 70
     0
  9
$PEXTMIN
 10
1.0000000000E+20
 20
1.0000000000E+20
 30
1.0000000000E+20
  9
$PEXTMAX
 10
-1.0000000000E+20
 20
-1.0000000000E+20
 30
-1.0000000000E+20
  9
$PLIMMIN
 10
0.0
 20
0.0
  9
$PLIMMAX
 10
420.0
 20
297.0
  9
$UNITMODE
 70
     0
  9
$VISRETAIN
 70
     1
  9
$PLINEGEN
 70
     0
  9
$PSLTSCALE
 70
     1
  9
$TREEDEPTH
 70
  3020
  9
$CMLSTYLE
  2
Standard
  9
$CMLJUST
 70
     0
  9
$CMLSCALE
 40
20.0
  9
$PROXYGRAPHICS
 70
     1
  9
$MEASUREMENT
 70
     1
  9
$CELWEIGHT
370
    -1
  9
$ENDCAPS
280
     0
  9
$JOINSTYLE
280
     0
  9
$LWDISPLAY
290
     1
  9
$INSUNITS
 70
     4
  9
$HYPERLINKBASE
  1

  9
$STYLESHEET
  1

  9
$XEDIT
290
     1
  9
$CEPSNTYPE
380
     0
  9
$PSTYLEMODE
290
     1
  9
$FINGERPRINTGUID
  2
{35E2E107-3AA5-480F-8D54-1459B0A6B019}
  9
$VERSIONGUID
  2
{FAEB1C32-E019-11D5-929B-00C0DF256EC4}
  9
$EXTNAMES
290
     1
  9
$PSVPSCALE
 40
0.0
  9
$OLESTARTUP
290
     0
  0
ENDSEC
  0
SECTION
  2
CLASSES
  0
CLASS
  1
ACDBDICTIONARYWDFLT
  2
AcDbDictionaryWithDefault
  3
ObjectDBX Classes
 90
        0
280
     0
281
     0
  0
CLASS
  1
VISUALSTYLE
  2
AcDbVisualStyle
  3
ObjectDBX Classes
 90
     4095
280
     0
281
     0
  0
CLASS
  1
MATERIAL
  2
AcDbMaterial
  3
ObjectDBX Classes
 90
     1153
280
     0
281
     0
  0
CLASS
  1
SCALE
  2
AcDbScale
  3
ObjectDBX Classes
 90
     1153
280
     0
281
     0
  0
CLASS
  1
SUN
  2
AcDbSun
  3
SCENEOE
 90
     1153
280
     0
281
     0
  0
CLASS
  1
ACDBPLACEHOLDER
  2
AcDbPlaceHolder
  3
ObjectDBX Classes
 90
        0
280
     0
281
     0
  0
CLASS
  1
LAYOUT
  2
AcDbLayout
  3
ObjectDBX Classes
 90
        0
280
     0
281
     0
  0
ENDSEC
  0
SECTION
  2
TABLES
  0
TABLE
  2
VPORT
  5
8
330
0
100
AcDbSymbolTable
 70
     1
  0
VPORT
  5
29
330
8
100
AcDbSymbolTableRecord
100
AcDbViewportTableRecord
  2
*Active
 70
     0
 10
0.0
 20
0.0
 11
1.0
 21
1.0
 12
1250.0
 22
1000.0
 13
0.0
 23
0.0
 14
10.0
 24
10.0
 15
10.0
 25
10.0
 16
0.0
 26
0.0
 36
1.0
 17
0.0
 27
0.0
 37
0.0
 40
2000.0
 41
1.25
 42
50.0
 43
0.0
 44
0.0
 50
0.0
 51
0.0
 71
     0
 72
  2000
 73
     1
 74
     3
 75
     0
 76
     0
 77
     0
 78
     0
281
     0
 65
     1
110
0.0
120
0.0
130
0.0
111
1.0
121
0.0
131
0.0
112
0.0
122
1.0
132
0.0
 79
     0
146
0.0
  0
ENDTAB
  0
TABLE
  2
LTYPE
  5
5
330
0
100
AcDbSymbolTable
 70
     6
  0
LTYPE
  5
14
330
5
100
AcDbSymbolTableRecord
100
AcDbLinetypeTableRecord
  2
ByBlock
 70
     0
  3

 72
    65
 73
     0
 40
0.0
  0
LTYPE
  5
15
330
5
100
AcDbSymbolTableRecord
100
AcDbLinetypeTableRecord
  2
ByLayer
 70
     0
  3

 72
    65
 73
     0
 40
0.0
  0
LTYPE
  5
16
330
5
100
AcDbSymbolTableRecord
100
AcDbLinetypeTableRecord
  2
Continuous
 70
     0
  3
Solid line
 72
    65
 73
     0
 40
0.0
  0
LTYPE
  5
6A
330
5
100
AcDbSymbolTableRecord
100
AcDbLinetypeTableRecord
  2
HIDDEN
 70
     0
  3
Hidden __ __ __ __ __ __ __ __ __ __ __ __ __ __
 72
    65
 73
     2
 40
1.905
 49
1.27
 74
     0
 49
-0.635
 74
     0
  0
LTYPE
  5
6B
330
5
100
AcDbSymbolTableRecord
100
AcDbLinetypeTableRecord
  2
PHANTOM
 70
     0
  3
Phantom ______  __  __  ______  __  __  ______
 72
    65
 73
     6
 40
12.7
 49
6.35
 74
     0
 49
-1.27
 74
     0
 49
1.27
 74
     0
 49
-1.27
 74
     0
 49
1.27
 74
     0
 49
-1.27
 74
     0
  0
LTYPE
  5
6C
330
5
100
AcDbSymbolTableRecord
100
AcDbLinetypeTableRecord
  2
CENTER
 70
     0
  3
Center ____ _ ____ _ ____ _ ____ _ ____ _ ____
 72
    65
 73
     4
 40
10.16
 49
6.35
 74
     0
 49
-1.27
 74
     0
 49
1.27
 74
     0
 49
-1.27
 74
     0
  0
LTYPE
  5
6D
330
5
100
AcDbSymbolTableRecord
100
AcDbLinetypeTableRecord
  2
CENTERX2
 70
     0
  3
Center (2x) ________  __  ________  __  _____
 72
    65
 73
     4
 40
20.32
 49
12.7
 74
     0
 49
-2.54
 74
     0
 49
2.54
 74
     0
 49
-2.54
 74
     0
  0
LTYPE
  5
6E
330
5
100
AcDbSymbolTableRecord
100
AcDbLinetypeTableRecord
  2
DOT2
 70
     0
  3
Dot (.5x) ........................................
 72
    65
 73
     2
 40
0.635
 49
0.0
 74
     0
 49
-0.635
 74
     0
  0
ENDTAB
  0
TABLE
  2
LAYER
  5
2
330
0
100
AcDbSymbolTable
 70
     1
  0
LAYER
  5
10
330
2
100
AcDbSymbolTableRecord
100
AcDbLayerTableRecord
  2
0
 70
     0
 62
     7
  6
Continuous
370
    -3
390
F
  0
ENDTAB
  0
TABLE
  2
STYLE
  5
3
330
0
100
AcDbSymbolTable
 70
     2
  0
STYLE
  5
11
330
3
100
AcDbSymbolTableRecord
100
AcDbTextStyleTableRecord
  2
Standard
 70
     0
 40
0.0
 41
1.0
 50
0.0
 71
     0
 42
3.5
  3
txt
  4

  0
STYLE
  5
6F
330
3
100
AcDbSymbolTableRecord
100
AcDbTextStyleTableRecord
  2
SLDTEXTSTYLE0
 70
     0
 40
0.0
 41
0.7
 50
0.0
 71
     0
 42
3.5
  3
TXT
  4

  0
ENDTAB
  0
TABLE
  2
VIEW
  5
6
330
0
100
AcDbSymbolTable
 70
     0
  0
ENDTAB
  0
TABLE
  2
UCS
  5
7
330
0
100
AcDbSymbolTable
 70
     0
  0
ENDTAB
  0
TABLE
  2
APPID
  5
9
330
0
100
AcDbSymbolTable
 70
     1
  0
APPID
  5
12
330
9
100
AcDbSymbolTableRecord
100
AcDbRegAppTableRecord
  2
ACAD
 70
     0
  0
ENDTAB
  0
TABLE
  2
DIMSTYLE
  5
A
330
0
100
AcDbSymbolTable
 70
     1
100
AcDbDimStyleTable
  0
DIMSTYLE
105
27
330
A
100
AcDbSymbolTableRecord
100
AcDbDimStyleTableRecord
  2
ISO-25
 70
     0
 41
2.5
 42
0.625
 43
3.75
 44
1.25
 73
     0
 74
     0
 77
     1
 78
     8
140
2.5
141
2.5
143
0.0393700787
147
0.625
171
     3
172
     1
178
     0
271
     2
272
     2
274
     3
278
    44
283
     0
284
     8
340
11
  0
ENDTAB
  0
TABLE
  2
BLOCK_RECORD
  5
1
330
0
100
AcDbSymbolTable
 70
     1
  0
BLOCK_RECORD
  5
1F
330
1
100
AcDbSymbolTableRecord
100
AcDbBlockTableRecord
  2
*Model_Space
340
22
  0
BLOCK_RECORD
  5
1B
330
1
100
AcDbSymbolTableRecord
100
AcDbBlockTableRecord
  2
*Paper_Space
340
1E
  0
BLOCK_RECORD
  5
23
330
1
100
AcDbSymbolTableRecord
100
AcDbBlockTableRecord
  2
*Paper_Space0
340
26
  0
ENDTAB
  0
ENDSEC
  0
SECTION
  2
BLOCKS
  0
BLOCK
  5
20
330
1F
100
AcDbEntity
  8
0
100
AcDbBlockBegin
  2
*Model_Space
 70
     0
 10
0.0
 20
0.0
 30
0.0
  3
*Model_Space
  1
*Model_Space
  0
ENDBLK
  5
21
330
1F
100
AcDbEntity
  8
0
100
AcDbBlockEnd
  0
BLOCK
  5
1C
330
1B
100
AcDbEntity
 67
     1
  8
0
100
AcDbBlockBegin
  2
*Paper_Space
 70
     0
 10
0.0
 20
0.0
 30
0.0
  3
*Paper_Space
  1
*Paper_Space
  0
ENDBLK
  5
1D
330
1B
100
AcDbEntity
 67
     1
  8
0
100
AcDbBlockEnd
  0
BLOCK
  5
24
330
23
100
AcDbEntity
  8
0
100
AcDbBlockBegin
  2
*Paper_Space0
 70
     0
 10
0.0
 20
0.0
 30
0.0
  3
*Paper_Space0
  1
*Paper_Space0
  0
ENDBLK
  5
25
330
23
100
AcDbEntity
  8
0
100
AcDbBlockEnd
  0
ENDSEC
  0
SECTION
  2
ENTITIES
  0
MTEXT
  5
70
330
1F
100
AcDbEntity
  8
0
  6
Continuous
 62
     7
370
     0
100
AcDbMText
 10
862.4689966178
 20
1899.5626032073
 30
0.0
 40
19.05
 41
0.0
 71
     1
 72
     1
  1
LB 6342 - PIANO BATHROOM CONSOLE WITH LB 7250 - UNDER-MOUNT BASIN
  7
SLDTEXTSTYLE0
 73
     1
 44
1.0
  0
SPLINE
  5
71
330
1F
100
AcDbEntity
  8
0
  6
Continuous
 62
     7
370
    15
100
AcDbSpline
210
0.0
220
0.0
230
1.0
 70
     8
 71
     3
 72
    22
 73
    18
 74
     0
 42
0.000000001
 43
0.00000001
 40
0.0
 40
0.0
 40
0.0
 40
0.0
 40
0.110897801522948
 40
0.2069553202894252
 40
0.2883520790440884
 40
0.3579481517835162
 40
0.4050367246345864
 40
0.4457507596779803
 40
0.4899041195615252
 40
0.5423365802964009
 40
0.6044004872665452
 40
0.6751283054833113
 40
0.7536120556001823
 40
0.8275614729571875
 40
0.8932092798202613
 40
0.9506554718793734
 40
0.9999999999999999
 40
0.9999999999999999
 40
0.9999999999999999
 40
0.9999999999999999
 10
775.381582519551
 20
855.5669092365973
 30
0.0
 10
776.9819304608321
 20
855.1681828861932
 30
0.0
 10
779.9684686627984
 20
854.4240875261188
 30
0.0
 10
784.1876124486643
 20
853.4451954883897
 30
0.0
 10
787.7966254512047
 20
852.6430329017804
 30
0.0
 10
790.7982259291321
 20
852.005277915766
 30
0.0
 10
793.2645752290028
 20
851.4998736128763
 30
0.0
 10
795.451495201171
 20
851.0664918262154
 30
0.0
 10
797.6631557803044
 20
850.6396358895165
 30
0.0
 10
800.1220621874313
 20
850.1772540099231
 30
0.0
 10
802.9301806190265
 20
849.6661413599749
 30
0.0
 10
806.071461172436
 20
849.1159655414589
 30
0.0
 10
809.3691606368606
 20
848.5648044970291
 30
0.0
 10
812.4625684858675
 20
848.0697639409328
 30
0.0
 10
815.1120596326962
 20
847.6623188090994
 30
0.0
 10
817.3131695760931
 20
847.3352699040702
 30
0.0
 10
818.5311362112674
 20
847.1631701028413
 30
0.0
 10
819.0939190895755
 20
847.0836483666175
 30
0.0
  0
SPLINE
  5
72
330
1F
100
AcDbEntity
  8
0
  6
Continuous
 62
     7
370
    15
100
AcDbSpline
210
0.0
220
0.0
230
1.0
 70
     8
 71
     3
 72
    21
 73
    17
 74
     0
 42
0.000000001
 43
0.00000001
 40
0.0
 40
0.0
 40
0.0
 40
0.0
 40
0.0554615486284218
 40
0.1209855817103858
 40
0.1967086800649407
 40
0.2826353553282452
 40
0.3661191508195962
 40
0.4388528578657003
 40
0.500853986338233
 40
0.5521566591906152
 40
0.6010859611734546
 40
0.6590019507905868
 40
0.7263938836286757
 40
0.8046233674029404
 40
0.8958200786180094
 40
1.0
 40
1.0
 40
1.0
 40
1.0
 10
942.6422703178126
 20
847.0836483666175
 30
0.0
 10
943.2775172255341
 20
847.1735618238154
 30
0.0
 10
944.6632649834143
 20
847.3697018918751
 30
0.0
 10
947.207861635202
 20
847.750286997689
 30
0.0
 10
950.3064212198803
 20
848.2320102035741
 30
0.0
 10
953.8653227835076
 20
848.8109012398867
 30
0.0
 10
957.4527557836304
 20
849.4253592569727
 30
0.0
 10
960.7335570333812
 20
850.0142912780489
 30
0.0
 10
963.5957318814791
 20
850.5482894288102
 30
0.0
 10
966.1954551945654
 20
851.0483790576654
 30
0.0
 10
968.815508390987
 20
851.5683151668452
 30
0.0
 10
971.520063873729
 20
852.1269930328627
 30
0.0
 10
974.5742488651646
 20
852.7821004221387
 30
0.0
 10
978.0328860803478
 20
853.556232719751
 30
0.0
 10
982.0324543332183
 20
854.4889811183882
 30
0.0
 10
984.851446608551
 20
855.1920268809326
 30
0.0
 10
986.3546068878371
 20
855.5669092365973
 30
0.0
  0
LINE
  5
73
330
1F
100
AcDbEntity
  8
0
  6
Continuous
 62
     7
370
    15
100
AcDbLine
 10
913.3680935116
 20
828.370919151
 30
0.0
 11
913.3680935116
 21
841.9264607856
 31
0.0
  0
LINE
  5
74
330
1F
100
AcDbEntity
  8
0
  6
Continuous
 62
     7
370
    15
100
AcDbLine
 10
848.3680958958
 20
841.9264607856
 30
0.0
 11
848.3680958958
 21
828.370919151
 31
0.0
  0
ARC
  5
75
330
1F
100
AcDbEntity
  8
0
  6
Continuous
 62
     7
370
    15
100
AcDbCircle
 10
850.8680947037
 20
828.3709131905
 30
0.0
 40
2.5
100
AcDbArc
 50
180.0
 51
270.0
  0
ARC
  5
76
330
1F
100
AcDbEntity
  8
0
  6
Continuous
 62
     7
370
    15
100
AcDbCircle
 10
910.8680947037
 20
828.3709131905
 30
0.0
 40
2.5
100
AcDbArc
 50
270.0
 51
0.0
  0
SPLINE
  5
77
330
1F
100
AcDbEntity
  8
0
  6
Continuous
 62
     7
370
    15
100
AcDbSpline
210
0.0
220
0.0
230
1.0
 70
     8
 71
     3
 72
    14
 73
    10
 74
     0
 42
0.000000001
 43
0.00000001
 40
0.0
 40
0.0
 40
0.0
 40
0.0
 40
0.0808953897510753
 40
0.2472952332599394
 40
0.3905228543087026
 40
0.524820337277655
 40
0.6645968631095392
 40
0.824606695186608
 40
1.0
 40
1.0
 40
1.0
 40
1.0
 10
913.4033086807925
 20
841.9221692511313
 30
0.0
 10
913.3968878836038
 20
842.0601357996786
 30
0.0
 10
913.3772596632143
 20
842.4818961732931
 30
0.0
 10
913.6490561822027
 20
843.1208083322144
 30
0.0
 10
914.0769003906587
 20
843.6656773342506
 30
0.0
 10
914.4967468772675
 20
843.9763580490722
 30
0.0
 10
914.8030951565456
 20
844.1243215716307
 30
0.0
 10
914.9818238760749
 20
844.1810020743059
 30
0.0
 10
914.9924316464994
 20
844.1827368228073
 30
0.0
 10
914.9979787976939
 20
844.1836439797156
 30
0.0
  0
SPLINE
  5
78
330
1F
100
AcDbEntity
  8
0
  6
Continuous
 62
     7
370
    15
100
AcDbSpline
210
0.0
220
0.0
230
1.0
 70
     8
 71
     3
 72
    14
 73
    10
 74
     0
 42
0.000000001
 43
0.00000001
 40
0.0
 40
0.0
 40
0.0
 40
0.0
 40
0.1614989730497579
 40
0.335866126913533
 40
0.4875372411885484
 40
0.6359788570975408
 40
0.791121853176649
 40
0.9536021377432407
 40
1.0
 40
1.0
 40
1.0
 40
1.0
 10
846.7473785491187
 20
844.1814535090201
 30
0.0
 10
846.7478715507168
 20
844.1816380391258
 30
0.0
 10
846.7488968361052
 20
844.1820218026305
 30
0.0
 10
846.9277599245484
 20
844.1275559905579
 30
0.0
 10
847.2682002792031
 20
843.9625763581441
 30
0.0
 10
847.7405212634449
 20
843.5944382929872
 30
0.0
 10
848.1607766753621
 20
842.977611437505
 30
0.0
 10
848.3842212682162
 20
842.3602492964233
 30
0.0
 10
848.3466137585978
 20
842.0102545803139
 30
0.0
 10
848.3382600457866
 20
841.9325106569999
 30
0.0
  0
SPLINE
  5
79
330
1F
100
AcDbEntity
  8
0
  6
Continuous
 62
     7
370
    15
100
AcDbSpline
210
0.0
220
0.0
230
1.0
 70
     8
 71
     3
 72
     9
 73
     5
 74
     0
 42
0.000000001
 43
0.00000001
 40
0.0
 40
0.0
 40
0.0
 40
0.0
 40
0.5315749167187094
 40
1.0
 40
1.0
 40
1.0
 40
1.0
 10
1057.793440958997
 20
882.8709103891127
 30
0.0
 10
1055.882609568454
 20
881.8370134453882
 30
0.0
 10
1052.287949003321
 20
879.8920440512214
 30
0.0
 10
1048.616833117816
 20
878.0832576157079
 30
0.0
 10
1046.897190353413
 20
877.2359766790145
 30
0.0
  0
SPLINE
  5
7A
330
1F
100
AcDbEntity
  8
0
  6
Continuous
 62
     7
370
    15
100
AcDbSpline
210
0.0
220
0.0
230
1.0
 70
     8
 71
     3
 72
     9
 73
     5
 74
     0
 42
0.000000001
 43
0.00000001
 40
0.0
 40
0.0
 40
0.0
 40
0.0
 40
0.5315749167187094
 40
1.0
 40
1.0
 40
1.0
 40
1.0
 10
703.9427484483916
 20
882.8709103891127
 30
0.0
 10
705.8535798389345
 20
881.8370134453882
 30
0.0
 10
709.4482404040676
 20
879.8920440512214
 30
0.0
 10
713.1193562895721
 20
878.0832576157079
 30
0.0
 10
714.8389990539748
 20
877.2359766790145
 30
0.0
  0
LINE
  5
7B
330
1F
100
AcDbEntity
  8
0
  6
Continuous
 62
     7
370
    15
100
AcDbLine
 10
854.3680950166
 20
882.8709103891
 30
0.0
 11
854.3680950166
 21
847.4807047078
 31
0.0
  0
LINE
  5
7C
330
1F
100
AcDbEntity
  8
0
  6
Continuous
 62
     7
370
    15
100
AcDbLine
 10
907.3680943908
 20
882.8709103891
 30
0.0
 11
907.3680943908
 21
847.4807047078
 31
0.0
  0
SPLINE
  5
7D
330
1F
100
AcDbEntity
  8
0
  6
Continuous
 62
     7
370
    15
100
AcDbSpline
210
0.0
220
0.0
230
1.0
 70
     8
 71
     3
 72
    46
 73
    42
 74
     0
 42
0.000000001
 43
0.00000001
 40
0.0
 40
0.0
 40
0.0
 40
0.0
 40
0.0468542242638708
 40
0.095851749220955
 40
0.1471678719975609
 40
0.2009573709260311
 40
0.2573553937170224
 40
0.3002178573561476
 40
0.3638434676019796
 40
0.441461910630324
 40
0.5333732909406627
 40
0.5947321868119647
 40
0.6489214443612072
 40
0.6958401601996023
 40
0.7354052083134155
 40
0.7675531869379278
 40
0.7828446919715568
 40
0.7982844087353927
 40
0.8138754942964334
 40
0.829620779306455
 40
0.8455233604915053
 40
0.8615860045412448
 40
0.877811675813605
 40
0.9021034990689685
 40
0.9202806269982314
 40
0.9323139418918797
 40
0.9360203571827984
 40
0.9374223856997352
 40
0.9378859577623828
 40
0.9380603724872805
 40
0.9381313101245836
 40
0.9381613932520548
 40
0.938174438926376
 40
0.9381801340910035
 40
0.9381826500774783
 40
0.9381837371796328
 40
0.9381842328800872
 40
0.9381845749458984
 40
0.9765067632375892
 40
0.9899569000444254
 40
1.0
 40
1.0
 40
1.0
 40
1.0
 10
1046.897190353413
 20
877.2359766790145
 30
0.0
 10
1045.940631137986
 20
876.7752590568549
 30
0.0
 10
1043.983755840771
 20
875.8327487352196
 30
0.0
 10
1041.001902888094
 20
874.4534095652949
 30
0.0
 10
1037.905952446529
 20
873.0638144219206
 30
0.0
 10
1034.694761381767
 20
871.6711547684431
 30
0.0
 10
1031.68513841125
 20
870.4100497628107
 30
0.0
 10
1028.515553239545
 20
869.1220465010183
 30
0.0
 10
1024.974054508393
 20
867.7290645031962
 30
0.0
 10
1020.507005882486
 20
866.0455337267083
 30
0.0
 10
1016.091539182927
 20
864.4644382273158
 30
0.0
 10
1012.103462519898
 20
863.1008477006153
 30
0.0
 10
1008.950266378337
 20
862.0602852000108
 30
0.0
 10
1006.197140991049
 20
861.179943327032
 30
0.0
 10
1003.85367391429
 20
860.4508016097336
 30
0.0
 10
1002.115887843871
 20
859.9224539296926
 30
0.0
 10
1000.845765729202
 20
859.542238051182
 30
0.0
 10
999.9044931421953
 20
859.263322265083
 30
0.0
 10
998.9483390660611
 20
858.982922312334
 30
0.0
 10
997.9773163554554
 20
858.7011280084298
 30
0.0
 10
996.9912628664555
 20
858.4180789373141
 30
0.0
 10
995.9903431738463
 20
858.1338603771729
 30
0.0
 10
994.8086856189542
 20
857.8020948939603
 30
0.0
 10
993.579205609453
 20
857.4617242002691
 30
0.0
 10
992.4372228504737
 20
857.150267711351
 30
0.0
 10
991.7262202192213
 20
856.9584232543099
 30
0.0
 10
991.3672366391435
 20
856.86209915499
 30
0.0
 10
991.250738335552
 20
856.8308893567287
 30
0.0
 10
991.2081705785097
 20
856.8195057190229
 30
0.0
 10
991.1934019420573
 20
856.8155484302924
 30
0.0
 10
991.1876681200846
 20
856.8140111054698
 30
0.0
 10
991.1852876224538
 20
856.8133987769285
 30
0.0
 10
991.1842813464829
 20
856.8130895535143
 30
0.0
 10
991.18383278451
 20
856.8130030163114
 30
0.0
 10
991.1836414205633
 20
856.8129276510664
 30
0.0
 10
991.1835553887403
 20
856.8129256094766
 30
0.0
 10
991.183518245378
 20
856.8128968554821
 30
0.0
 10
990.3337982421
 20
856.9030891470638
 30
0.0
 10
989.3343000123132
 20
856.2720259705105
 30
0.0
 10
988.1361379375238
 20
856.0162448551823
 30
0.0
 10
987.7894363916024
 20
855.9235656721236
 30
0.0
 10
987.6412252993781
 20
855.8839463421576
 30
0.0
  0
LINE
  5
7E
330
1F
100
AcDbEntity
  8
0
  6
Continuous
 62
     7
370
    15
100
AcDbLine
 10
987.6412252994
 20
855.8839463422
 30
0.0
 11
986.3427157612
 21
855.6227289864
 31
0.0
  0
LINE
  5
7F
330
1F
100
AcDbEntity
  8
0
  6
Continuous
 62
     7
370
    15
100
AcDbLine
 10
774.094964108
 20
855.8839463422
 30
0.0
 11
775.3902177425
 21
855.6054436394
 31
0.0
  0
SPLINE
  5
80
330
1F
100
AcDbEntity
  8
0
  6
Continuous
 62
     7
370
    15
100
AcDbSpline
210
0.0
220
0.0
230
1.0
 70
     8
 71
     3
 72
    46
 73
    42
 74
     0
 42
0.000000001
 43
0.00000001
 40
0.0
 40
0.0
 40
0.0
 40
0.0
 40
0.0468542242638708
 40
0.095851749220955
 40
0.1471678719975609
 40
0.2009573709260311
 40
0.2573553937170224
 40
0.3002178573561476
 40
0.3638434676019796
 40
0.441461910630324
 40
0.5333732909406627
 40
0.5947321868119647
 40
0.6489214443612072
 40
0.6958401601996023
 40
0.7354052083134155
 40
0.7675531869379278
 40
0.7828446919715568
 40
0.7982844087353927
 40
0.8138754942964334
 40
0.829620779306455
 40
0.8455233604915053
 40
0.8615860045412448
 40
0.877811675813605
 40
0.9021034990689685
 40
0.9202806269982314
 40
0.9323139418918797
 40
0.9360203571827984
 40
0.9374223856997352
 40
0.9378859577623828
 40
0.9380603724872805
 40
0.9381313101245836
 40
0.9381613932520548
 40
0.938174438926376
 40
0.9381801340910035
 40
0.9381826500774783
 40
0.9381837371796328
 40
0.9381842328800872
 40
0.9381845749458984
 40
0.9765067632375892
 40
0.9899569000444254
 40
1.0
 40
1.0
 40
1.0
 40
1.0
 10
714.8389990539748
 20
877.2359766790145
 30
0.0
 10
715.7955582694021
 20
876.7752590568549
 30
0.0
 10
717.7524335666169
 20
875.8327487352196
 30
0.0
 10
720.7342865192942
 20
874.4534095652949
 30
0.0
 10
723.8302369608587
 20
873.0638144219206
 30
0.0
 10
727.0414280256217
 20
871.6711547684431
 30
0.0
 10
730.0510509961382
 20
870.4100497628107
 30
0.0
 10
733.2206361678436
 20
869.1220465010183
 30
0.0
 10
736.7621348989949
 20
867.7290645031962
 30
0.0
 10
741.229183524902
 20
866.0455337267083
 30
0.0
 10
745.644650224461
 20
864.4644382273158
 30
0.0
 10
749.63272688749
 20
863.1008477006153
 30
0.0
 10
752.7859230290514
 20
862.0602852000108
 30
0.0
 10
755.5390484163393
 20
861.179943327032
 30
0.0
 10
757.882515493098
 20
860.4508016097336
 30
0.0
 10
759.6203015635173
 20
859.9224539296926
 30
0.0
 10
760.8904236781865
 20
859.542238051182
 30
0.0
 10
761.8316962651928
 20
859.263322265083
 30
0.0
 10
762.7878503413272
 20
858.982922312334
 30
0.0
 10
763.7588730519328
 20
858.7011280084298
 30
0.0
 10
764.7449265409327
 20
858.4180789373141
 30
0.0
 10
765.7458462335419
 20
858.1338603771729
 30
0.0
 10
766.927503788434
 20
857.8020948939603
 30
0.0
 10
768.1569837979351
 20
857.4617242002691
 30
0.0
 10
769.2989665569145
 20
857.150267711351
 30
0.0
 10
770.0099691881669
 20
856.9584232543099
 30
0.0
 10
770.3689527682446
 20
856.86209915499
 30
0.0
 10
770.4854510718362
 20
856.8308893567287
 30
0.0
 10
770.5280188288785
 20
856.8195057190229
 30
0.0
 10
770.5427874653309
 20
856.8155484302924
 30
0.0
 10
770.5485212873035
 20
856.8140111054698
 30
0.0
 10
770.5509017849345
 20
856.8133987769285
 30
0.0
 10
770.5519080609054
 20
856.8130895535143
 30
0.0
 10
770.5523566228783
 20
856.8130030163114
 30
0.0
 10
770.552547986825
 20
856.8129276510664
 30
0.0
 10
770.552634018648
 20
856.8129256094766
 30
0.0
 10
770.5526711620103
 20
856.8128968554821
 30
0.0
 10
771.4023911652882
 20
856.9030891470638
 30
0.0
 10
772.401889395075
 20
856.2720259705105
 30
0.0
 10
773.6000514698643
 20
856.0162448551823
 30
0.0
 10
773.9467530157857
 20
855.9235656721236
 30
0.0
 10
774.09496410801
 20
855.8839463421576
 30
0.0
  0
LINE
  5
81
330
1F
100
AcDbEntity
  8
0
  6
Continuous
 62
     7
370
    15
100
AcDbLine
 10
854.3680950166
 20
847.4807047078
 30
0.0
 11
854.3680950166
 21
840.0724583098
 31
0.0
  0
LINE
  5
82
330
1F
100
AcDbEntity
  8
0
  6
Continuous
 62
     7
370
    15
100
AcDbLine
 10
907.3680943908
 20
847.4807047078
 30
0.0
 11
907.3680943908
 21
840.0724583098
 31
0.0
  0
LINE
  5
83
330
1F
100
AcDbEntity
  8
0
  6
Continuous
 62
     7
370
    15
100
AcDbLine
 10
909.8680938692
 20
846.4098029563
 30
0.0
 11
909.4978167774
 21
846.3808201977
 31
0.0
  0
SPLINE
  5
84
330
1F
100
AcDbEntity
  8
0
  6
Continuous
 62
     7
370
    15
100
AcDbSpline
210
0.0
220
0.0
230
1.0
 70
    24
 71
     3
 72
    11
 73
     7
 74
     0
 42
0.000000001
 43
0.00000001
 40
0.0
 40
0.0
 40
0.0
 40
0.0
 40
0.3357724375500667
 40
0.7602083085427462
 40
0.8957949739493847
 40
1.0
 40
1.0
 40
1.0
 40
1.0
 10
909.4978167773683
 20
846.3808201977484
 30
0.0
 10
909.5262424356678
 20
846.3808201977483
 30
0.0
 10
909.5905997777201
 20
846.3808201977483
 30
0.0
 10
909.6950830135596
 20
846.3808201977484
 30
0.0
 10
909.8046068485493
 20
846.3808201977484
 30
0.0
 10
909.8488607982318
 20
846.3808201977484
 30
0.0
 10
909.8680920065839
 20
846.3808201977484
 30
0.0
  0
SPLINE
  5
85
330
1F
100
AcDbEntity
  8
0
  6
Continuous
 62
     7
370
    15
100
AcDbSpline
210
0.0
220
0.0
230
1.0
 70
    24
 71
     3
 72
    11
 73
     7
 74
     0
 42
0.000000001
 43
0.00000001
 40
0.0
 40
0.0
 40
0.0
 40
0.0
 40
0.3357724375500667
 40
0.7602083085427462
 40
0.8957949739493847
 40
1.0
 40
1.0
 40
1.0
 40
1.0
 10
852.2383726300199
 20
846.3808201977484
 30
0.0
 10
852.2099469717203
 20
846.3808201977483
 30
0.0
 10
852.1455896296682
 20
846.3808201977483
 30
0.0
 10
852.0411063938286
 20
846.3808201977484
 30
0.0
 10
851.931582558839
 20
846.3808201977484
 30
0.0
 10
851.8873286091564
 20
846.3808201977484
 30
0.0
 10
851.8680974008042
 20
846.3808201977484
 30
0.0
  0
LINE
  5
86
330
1F
100
AcDbEntity
  8
0
  6
Continuous
 62
     7
370
    15
100
AcDbLine
 10
851.8680955382
 20
846.4098029563
 30
0.0
 11
852.23837263
 21
846.3808201977
 31
0.0
  0
SPLINE
  5
87
330
1F
100
AcDbEntity
  8
0
  6
Continuous
 62
     7
370
    15
100
AcDbSpline
210
0.0
220
0.0
230
1.0
 70
     8
 71
     3
 72
    13
 73
     9
 74
     0
 42
0.000000001
 43
0.00000001
 40
0.0
 40
0.0
 40
0.0
 40
0.0
 40
0.1775700044030437
 40
0.3616254919392857
 40
0.5295917822647511
 40
0.7075938068742729
 40
0.8956396721700878
 40
1.0
 40
1.0
 40
1.0
 40
1.0
 10
819.0606485219199
 20
847.0896535345786
 30
0.0
 10
820.7304823969059
 20
846.8619980809231
 30
0.0
 10
824.1311383721578
 20
846.3983723931412
 30
0.0
 10
829.0849826069159
 20
845.806299059716
 30
0.0
 10
834.0080057907788
 20
845.2669717072072
 30
0.0
 10
838.9383681678598
 20
844.785625732311
 30
0.0
 10
843.2627850067087
 20
844.403085676181
 30
0.0
 10
845.9350255655762
 20
844.2081213164795
 30
0.0
 10
846.8887533159453
 20
844.1385381647818
 30
0.0
  0
LINE
  5
88
330
1F
100
AcDbEntity
  8
0
  6
Continuous
 62
     7
370
    15
100
AcDbLine
 10
847.6758065732
 20
844.0796487757
 30
0.0
 11
849.4603770883
 21
843.9461492726
 31
0.0
  0
SPLINE
  5
89
330
1F
100
AcDbEntity
  8
0
  6
Continuous
 62
     7
370
    15
100
AcDbSpline
210
0.0
220
0.0
230
1.0
 70
     8
 71
     3
 72
    13
 73
     9
 74
     0
 42
0.000000001
 43
0.00000001
 40
0.0
 40
0.0
 40
0.0
 40
0.0
 40
0.1774974080653152
 40
0.3614470700882081
 40
0.5293167856299659
 40
0.7072164652570933
 40
0.8951542107109275
 40
1.0
 40
1.0
 40
1.0
 40
1.0
 10
942.6763716252048
 20
847.0897727438681
 30
0.0
 10
941.0062606124317
 20
846.862075727729
 30
0.0
 10
937.6053279516756
 20
846.3984046226219
 30
0.0
 10
932.6512063981947
 20
845.80629867137
 30
0.0
 10
927.7281844195794
 20
845.2669737759926
 30
0.0
 10
922.7978181479768
 20
844.7856170338596
 30
0.0
 10
918.4683970051251
 20
844.4026698749775
 30
0.0
 10
915.7911767672035
 20
844.2073607713637
 30
0.0
 10
914.8324641497333
 20
844.1374205776923
 30
0.0
  0
LINE
  5
8A
330
1F
100
AcDbEntity
  8
0
  6
Continuous
 62
     7
370
    15
100
AcDbLine
 10
914.0603828342
 20
844.0796487757
 30
0.0
 11
912.2758123191
 21
843.9461492726
 31
0.0
  0
LINE
  5
8B
330
1F
100
AcDbEntity
  8
0
  6
Continuous
 62
     7
370
    15
100
AcDbLine
 10
907.3680943908
 20
840.0724583098
 30
0.0
 11
907.3680943908
 21
839.8509227463
 31
0.0
  0
LINE
  5
8C
330
1F
100
AcDbEntity
  8
0
  6
Continuous
 62
     7
370
    15
100
AcDbLine
 10
854.3680950166
 20
840.0724583098
 30
0.0
 11
854.3680950166
 21
839.8509227463
 31
0.0
  0
ARC
  5
8D
330
1F
100
AcDbEntity
  8
0
  6
Continuous
 62
     7
370
    15
100
AcDbCircle
 10
856.8680947037
 20
839.8509153552
 30
0.0
 40
2.5
100
AcDbArc
 50
180.0
 51
270.0
  0
ARC
  5
8E
330
1F
100
AcDbEntity
  8
0
  6
Continuous
 62
     7
370
    15
100
AcDbCircle
 10
904.8680947037
 20
839.8509153552
 30
0.0
 40
2.5
100
AcDbArc
 50
270.0
 51
0.0
  0
LINE
  5
8F
330
1F
100
AcDbEntity
  8
0
  6
Continuous
 62
     7
370
    15
100
AcDbLine
 10
868.5993325995
 20
837.3578690716
 30
0.0
 11
867.6468103291
 21
837.3509102294
 31
0.0
  0
LINE
  5
90
330
1F
100
AcDbEntity
  8
0
  6
Continuous
 62
     7
370
    15
100
AcDbLine
 10
904.8680949123
 20
837.3509102294
 30
0.0
 11
894.0893790783
 21
837.3509102294
 31
0.0
  0
LINE
  5
91
330
1F
100
AcDbEntity
  8
0
  6
Continuous
 62
     7
370
    15
100
AcDbLine
 10
856.8680944951
 20
837.3509102294
 30
0.0
 11
867.6468103291
 21
837.3509102294
 31
0.0
  0
LINE
  5
92
330
1F
100
AcDbEntity
  8
0
  6
Continuous
 62
     7
370
    15
100
AcDbLine
 10
910.8680940331
 20
825.870906634
 30
0.0
 11
850.8680953742
 21
825.870906634
 31
0.0
  0
LINE
  5
93
330
1F
100
AcDbEntity
  8
0
  6
Continuous
 62
     7
370
    15
100
AcDbLine
 10
1500.8680994721
 20
1022.8709147104
 30
0.0
 11
1500.8680994721
 21
133.8709198663
 31
0.0
  0
LINE
  5
94
330
1F
100
AcDbEntity
  8
0
  6
Continuous
 62
     7
370
    15
100
AcDbLine
 10
260.8680899353
 20
1022.8709147104
 30
0.0
 11
260.8680899353
 21
133.8709198663
 31
0.0
  0
ARC
  5
95
330
1F
100
AcDbEntity
  8
0
  6
Continuous
 62
     7
370
    15
100
AcDbCircle
 10
1430.8680947037
 20
1022.8709131905
 30
0.0
 40
10.00000000000023
100
AcDbArc
 50
90.0
 51
180.0
  0
LINE
  5
96
330
1F
100
AcDbEntity
  8
0
  6
Continuous
 62
     7
370
    15
100
AcDbLine
 10
1430.8681066246
 20
1032.8709126243
 30
0.0
 11
1490.8681090088
 21
1032.8709126243
 31
0.0
  0
ARC
  5
97
330
1F
100
AcDbEntity
  8
0
  6
Continuous
 62
     7
370
    15
100
AcDbCircle
 10
1490.8680947037
 20
1022.8709131905
 30
0.0
 40
10.00000000000023
100
AcDbArc
 50
0.0
 51
90.0
  0
LINE
  5
98
330
1F
100
AcDbEntity
  8
0
  6
Continuous
 62
     7
370
    15
100
AcDbLine
 10
1420.8681161614
 20
1022.8709147104
 30
0.0
 11
1500.8680994721
 21
1022.8709147104
 31
0.0
  0
ARC
  5
99
330
1F
100
AcDbEntity
  8
0
  6
Continuous
 62
     7
370
    15
100
AcDbCircle
 10
270.8680947037
 20
1022.8709131905
 30
0.0
 40
10.00000000000023
100
AcDbArc
 50
90.0
 51
180.0
  0
LINE
  5
9A
330
1F
100
AcDbEntity
  8
0
  6
Continuous
 62
     7
370
    15
100
AcDbLine
 10
270.8680803986
 20
1032.8709126243
 30
0.0
 11
330.8680827828
 21
1032.8709126243
 31
0.0
  0
ARC
  5
9B
330
1F
100
AcDbEntity
  8
0
  6
Continuous
 62
     7
370
    15
100
AcDbCircle
 10
330.8680947037
 20
1022.8709131905
 30
0.0
 40
10.00000000000023
100
AcDbArc
 50
0.0
 51
90.0
  0
LINE
  5
9C
330
1F
100
AcDbEntity
  8
0
  6
Continuous
 62
     7
370
    15
100
AcDbLine
 10
260.8680899353
 20
1022.8709147104
 30
0.0
 11
340.868073246
 21
1022.8709147104
 31
0.0
  0
LINE
  5
9D
330
1F
100
AcDbEntity
  8
0
  6
Continuous
 62
     7
370
    15
100
AcDbLine
 10
1420.8681161614
 20
1022.8709147104
 30
0.0
 11
1420.8681161614
 21
133.8709198663
 31
0.0
  0
LINE
  5
9E
330
1F
100
AcDbEntity
  8
0
  6
Continuous
 62
     7
370
    15
100
AcDbLine
 10
340.868073246
 20
1022.8709147104
 30
0.0
 11
340.868073246
 21
133.8709198663
 31
0.0
  0
LINE
  5
9F
330
1F
100
AcDbEntity
  8
0
  6
Continuous
 62
     7
370
    15
100
AcDbLine
 10
345.8680684777
 20
113.8709389397
 30
0.0
 11
255.8680947037
 21
113.8709389397
 31
0.0
  0
LINE
  5
A0
330
1F
100
AcDbEntity
  8
0
  6
Continuous
 62
     7
370
    15
100
AcDbLine
 10
255.8680947037
 20
113.8709389397
 30
0.0
 11
255.8680947037
 21
130.8708988854
 31
0.0
  0
LINE
  5
A1
330
1F
100
AcDbEntity
  8
0
  6
Continuous
 62
     7
370
    15
100
AcDbLine
 10
345.8680684777
 20
113.8709389397
 30
0.0
 11
345.8680684777
 21
130.8708988854
 31
0.0
  0
LINE
  5
A2
330
1F
100
AcDbEntity
  8
0
  6
Continuous
 62
     7
370
    15
100
AcDbLine
 10
258.8681156845
 20
133.8709198663
 30
0.0
 11
342.8681071015
 21
133.8709198663
 31
0.0
  0
ARC
  5
A3
330
1F
100
AcDbEntity
  8
0
  6
Continuous
 62
     7
370
    15
100
AcDbCircle
 10
342.8680946988
 20
130.8709131905
 30
0.0
 40
3.000000000000114
100
AcDbArc
 50
0.0
 51
90.0
  0
ARC
  5
A4
330
1F
100
AcDbEntity
  8
0
  6
Continuous
 62
     7
370
    15
100
AcDbCircle
 10
258.8680946988
 20
130.8709131905
 30
0.0
 40
3.000000000000114
100
AcDbArc
 50
90.0
 51
180.0
  0
LINE
  5
A5
330
1F
100
AcDbEntity
  8
0
  6
Continuous
 62
     7
370
    15
100
AcDbLine
 10
1418.8680823059
 20
133.8709198663
 30
0.0
 11
1502.8680737229
 21
133.8709198663
 31
0.0
  0
ARC
  5
A6
330
1F
100
AcDbEntity
  8
0
  6
Continuous
 62
     7
370
    15
100
AcDbCircle
 10
1502.8680947037
 20
130.8709131905
 30
0.0
 40
3.000000000000114
100
AcDbArc
 50
0.0
 51
90.0
  0
ARC
  5
A7
330
1F
100
AcDbEntity
  8
0
  6
Continuous
 62
     7
370
    15
100
AcDbCircle
 10
1418.8680947037
 20
130.8709131905
 30
0.0
 40
3.000000000000114
100
AcDbArc
 50
90.0
 51
180.0
  0
LINE
  5
A8
330
1F
100
AcDbEntity
  8
0
  6
Continuous
 62
     7
370
    15
100
AcDbLine
 10
1505.8680947037
 20
113.8709389397
 30
0.0
 11
1415.8681209297
 21
113.8709389397
 31
0.0
  0
LINE
  5
A9
330
1F
100
AcDbEntity
  8
0
  6
Continuous
 62
     7
370
    15
100
AcDbLine
 10
1415.8681209297
 20
113.8709389397
 30
0.0
 11
1415.8681209297
 21
130.8708988854
 31
0.0
  0
LINE
  5
AA
330
1F
100
AcDbEntity
  8
0
  6
Continuous
 62
     7
370
    15
100
AcDbLine
 10
1505.8680947037
 20
113.8709389397
 30
0.0
 11
1505.8680947037
 21
130.8708988854
 31
0.0
  0
LINE
  5
AB
330
1F
100
AcDbEntity
  8
0
  6
Continuous
 62
     7
370
    15
100
AcDbLine
 10
1420.8681161614
 20
882.8709103891
 30
0.0
 11
340.868073246
 21
882.8709103891
 31
0.0
  0
LINE
  5
AC
330
1F
100
AcDbEntity
  8
0
  6
Continuous
 62
     7
370
    15
100
AcDbLine
 10
340.868073246
 20
1022.8709147104
 30
0.0
 11
1420.8681161614
 21
1022.8709147104
 31
0.0
  0
SPLINE
  5
AD
330
1F
100
AcDbEntity
  8
0
  6
PHANTOM
 62
     8
370
     0
100
AcDbSpline
210
0.0
220
0.0
230
1.0
 70
     8
 71
     3
 72
    13
 73
     9
 74
     0
 42
0.000000001
 43
0.00000001
 40
0.0
 40
0.0
 40
0.0
 40
0.0
 40
0.1720099710564057
 40
0.3483867728607661
 40
0.5284196542071848
 40
0.7112963354377505
 40
0.8961185104654861
 40
1.0
 40
1.0
 40
1.0
 40
1.0
 10
1046.897190353413
 20
877.2359766790145
 30
0.0
 10
1046.553177276369
 20
877.1277133799704
 30
0.0
 10
1045.856417635067
 20
876.9084382929416
 30
0.0
 10
1044.493542928682
 20
877.2291978230708
 30
0.0
 10
1042.886488984582
 20
878.0484107367819
 30
0.0
 10
1041.012633044694
 20
879.4603813569763
 30
0.0
 10
1039.245422189549
 20
881.0595448021559
 30
0.0
 10
1038.036191869022
 20
882.3916071008935
 30
0.0
 10
1037.60108604147
 20
882.8709103891127
 30
0.0
  0
SPLINE
  5
AE
330
1F
100
AcDbEntity
  8
0
  6
PHANTOM
 62
     8
370
     0
100
AcDbSpline
210
0.0
220
0.0
230
1.0
 70
     8
 71
     3
 72
    13
 73
     9
 74
     0
 42
0.000000001
 43
0.00000001
 40
0.0
 40
0.0
 40
0.0
 40
0.0
 40
0.1720099710564057
 40
0.3483867728607661
 40
0.5284196542071848
 40
0.7112963354377505
 40
0.8961185104654861
 40
1.0
 40
1.0
 40
1.0
 40
1.0
 10
714.8389990539748
 20
877.2359766790145
 30
0.0
 10
715.1830121310196
 20
877.1277133799704
 30
0.0
 10
715.8797717723211
 20
876.9084382929416
 30
0.0
 10
717.2426464787056
 20
877.2291978230708
 30
0.0
 10
718.8497004228062
 20
878.0484107367819
 30
0.0
 10
720.7235563626939
 20
879.4603813569763
 30
0.0
 10
722.4907672178396
 20
881.0595448021559
 30
0.0
 10
723.6999975383661
 20
882.3916071008935
 30
0.0
 10
724.1351033659179
 20
882.8709103891127
 30
0.0
  0
LINE
  5
AF
330
1F
100
AcDbEntity
  8
0
  6
PHANTOM
 62
     8
370
     0
100
AcDbLine
 10
904.8680949123
 20
845.0015538165
 30
0.0
 11
904.8680949123
 21
882.8709103891
 31
0.0
  0
LINE
  5
B0
330
1F
100
AcDbEntity
  8
0
  6
PHANTOM
 62
     8
370
     0
100
AcDbLine
 10
904.8680949123
 20
845.0015538165
 30
0.0
 11
856.8680944951
 21
845.0015538165
 31
0.0
  0
LINE
  5
B1
330
1F
100
AcDbEntity
  8
0
  6
PHANTOM
 62
     8
370
     0
100
AcDbLine
 10
856.8680944951
 20
845.0015538165
 30
0.0
 11
856.8680944951
 21
882.8709103891
 31
0.0
  0
ARC
  5
B2
330
1F
100
AcDbEntity
  8
0
  6
PHANTOM
 62
     8
370
     0
100
AcDbCircle
 10
856.8577036717
 20
847.4911627531
 30
0.0
 40
2.489630620473339
100
AcDbArc
 50
180.2406797276
 51
270.2391326834
  0
ARC
  5
B3
330
1F
100
AcDbEntity
  8
0
  6
PHANTOM
 62
     8
370
     0
100
AcDbCircle
 10
904.8784857356
 20
847.4911627531
 30
0.0
 40
2.489630620473453
100
AcDbArc
 50
269.7608673166
 51
359.7593202724
  0
ARC
  5
B4
330
1F
100
AcDbEntity
  8
0
  6
PHANTOM
 62
     8
370
     0
100
AcDbCircle
 10
851.8784853078
 20
851.428545356
 30
0.0
 40
2.489631678599092
100
AcDbArc
 50
0.2407040784
 51
90.2391083326
  0
LINE
  5
B5
330
1F
100
AcDbEntity
  8
0
  6
PHANTOM
 62
     8
370
     0
100
AcDbLine
 10
851.8680955382
 20
882.8709103891
 30
0.0
 11
851.8680955382
 21
853.9181553551
 31
0.0
  0
LINE
  5
B6
330
1F
100
AcDbEntity
  8
0
  6
PHANTOM
 62
     8
370
     0
100
AcDbLine
 10
909.8680938692
 20
882.8709103891
 30
0.0
 11
909.8680938692
 21
853.9181553551
 31
0.0
  0
ARC
  5
B7
330
1F
100
AcDbEntity
  8
0
  6
PHANTOM
 62
     8
370
     0
100
AcDbCircle
 10
909.8577040996
 20
851.428545356
 30
0.0
 40
2.489631678599092
100
AcDbArc
 50
89.7608916674
 51
179.7592959216
  0
LINE
  5
B8
330
1F
100
AcDbEntity
  8
0
  6
PHANTOM
 62
     8
370
     0
100
AcDbLine
 10
851.8680955382
 20
853.9181553551
 30
0.0
 11
795.2500234456
 21
853.9181553551
 31
0.0
  0
SPLINE
  5
B9
330
1F
100
AcDbEntity
  8
0
  6
PHANTOM
 62
     8
370
     0
100
AcDbSpline
210
0.0
220
0.0
230
1.0
 70
     8
 71
     3
 72
    26
 73
    22
 74
     0
 42
0.000000001
 43
0.00000001
 40
0.0
 40
0.0
 40
0.0
 40
0.0
 40
0.1535028845523309
 40
0.3021664681313212
 40
0.3437828844528616
 40
0.3850127794621641
 40
0.4258583267987167
 40
0.4663220180947217
 40
0.5064059041606995
 40
0.546112349722532
 40
0.585443875726673
 40
0.6323748713368873
 40
0.6768335329109322
 40
0.7188276912124381
 40
0.7583666673784623
 40
0.7954618422974885
 40
0.830126577308216
 40
0.8623779459313825
 40
0.9295456694805218
 40
0.9869797421219632
 40
1.0
 40
1.0
 40
1.0
 40
1.0
 10
795.250023445626
 20
853.9181553551429
 30
0.0
 10
795.1386149581657
 20
854.4477410063025
 30
0.0
 10
794.9193102247474
 20
855.4902166982132
 30
0.0
 10
794.4537044159175
 20
857.680010387424
 30
0.0
 10
794.0677908173359
 20
859.4321999026429
 30
0.0
 10
793.8419448751532
 20
860.4435200380758
 30
0.0
 10
793.598997327784
 20
861.5150020688613
 30
0.0
 10
793.3387765351054
 20
862.6444490151104
 30
0.0
 10
793.0613609448587
 20
863.8286374470821
 30
0.0
 10
792.7665988875704
 20
865.0646491085139
 30
0.0
 10
792.4339619011085
 20
866.4362980976317
 30
0.0
 10
792.0620550496674
 20
867.9312026053126
 30
0.0
 10
791.6463660055261
 20
869.5310225403256
 30
0.0
 10
791.216211065202
 20
871.1061924826729
 30
0.0
 10
790.7713622711422
 20
872.6434830523539
 30
0.0
 10
790.312239897304
 20
874.1309345712505
 30
0.0
 10
789.8375838530876
 20
875.5574067085777
 30
0.0
 10
789.1644156091273
 20
877.4366702954737
 30
0.0
 10
788.2044009287616
 20
879.6888905200435
 30
0.0
 10
787.1342445558734
 20
881.6970258956283
 30
0.0
 10
786.4073212876468
 20
882.6878094105082
 30
0.0
 10
786.2729827971656
 20
882.8709103891127
 30
0.0
  0
SPLINE
  5
BA
330
1F
100
AcDbEntity
  8
0
  6
PHANTOM
 62
     8
370
     0
100
AcDbSpline
210
0.0
220
0.0
230
1.0
 70
     8
 71
     3
 72
    26
 73
    22
 74
     0
 42
0.000000001
 43
0.00000001
 40
0.0
 40
0.0
 40
0.0
 40
0.0
 40
0.1535028845523309
 40
0.3021664681313212
 40
0.3437828844528616
 40
0.3850127794621641
 40
0.4258583267987167
 40
0.4663220180947217
 40
0.5064059041606995
 40
0.546112349722532
 40
0.585443875726673
 40
0.6323748713368873
 40
0.6768335329109322
 40
0.7188276912124381
 40
0.7583666673784623
 40
0.7954618422974885
 40
0.830126577308216
 40
0.8623779459313825
 40
0.9295456694805218
 40
0.9869797421219632
 40
1.0
 40
1.0
 40
1.0
 40
1.0
 10
966.4861659617621
 20
853.9181553551429
 30
0.0
 10
966.5975744492224
 20
854.4477410063025
 30
0.0
 10
966.8168791826408
 20
855.4902166982132
 30
0.0
 10
967.2824849914706
 20
857.680010387424
 30
0.0
 10
967.6683985900522
 20
859.4321999026429
 30
0.0
 10
967.8942445322349
 20
860.4435200380758
 30
0.0
 10
968.1371920796042
 20
861.5150020688613
 30
0.0
 10
968.3974128722829
 20
862.6444490151104
 30
0.0
 10
968.6748284625295
 20
863.8286374470821
 30
0.0
 10
968.9695905198178
 20
865.0646491085139
 30
0.0
 10
969.3022275062796
 20
866.4362980976317
 30
0.0
 10
969.6741343577207
 20
867.9312026053126
 30
0.0
 10
970.089823401862
 20
869.5310225403256
 30
0.0
 10
970.5199783421863
 20
871.1061924826729
 30
0.0
 10
970.964827136246
 20
872.6434830523539
 30
0.0
 10
971.4239495100842
 20
874.1309345712505
 30
0.0
 10
971.8986055543006
 20
875.5574067085777
 30
0.0
 10
972.5717737982609
 20
877.4366702954737
 30
0.0
 10
973.5317884786265
 20
879.6888905200435
 30
0.0
 10
974.6019448515149
 20
881.6970258956283
 30
0.0
 10
975.3288681197414
 20
882.6878094105082
 30
0.0
 10
975.4632066102225
 20
882.8709103891127
 30
0.0
  0
LINE
  5
BB
330
1F
100
AcDbEntity
  8
0
  6
PHANTOM
 62
     8
370
     0
100
AcDbLine
 10
909.8680938692
 20
853.9181553551
 30
0.0
 11
966.4861659618
 21
853.9181553551
 31
0.0
  0
SPLINE
  5
BC
330
1F
100
AcDbEntity
  8
0
  6
PHANTOM
 62
     8
370
     0
100
AcDbSpline
210
0.0
220
0.0
230
1.0
 70
     8
 71
     3
 72
    10
 73
     6
 74
     0
 42
0.000000001
 43
0.00000001
 40
0.0
 40
0.0
 40
0.0
 40
0.0
 40
0.2887731656829502
 40
0.6447799919683038
 40
1.0
 40
1.0
 40
1.0
 40
1.0
 10
986.3427157612044
 20
855.6227289864295
 30
0.0
 10
984.4687911567721
 20
855.2082461960504
 30
0.0
 10
980.2846451384343
 20
854.2827785902929
 30
0.0
 10
973.6293961488834
 20
853.6838654392952
 30
0.0
 10
968.8654859462941
 20
853.840116335771
 30
0.0
 10
966.4861659617621
 20
853.9181553551429
 30
0.0
  0
SPLINE
  5
BD
330
1F
100
AcDbEntity
  8
0
  6
PHANTOM
 62
     8
370
     0
100
AcDbSpline
210
0.0
220
0.0
230
1.0
 70
     8
 71
     3
 72
    11
 73
     7
 74
     0
 42
0.000000001
 43
0.00000001
 40
0.0
 40
0.0
 40
0.0
 40
0.0
 40
0.1998213333693439
 40
0.4667686912659237
 40
0.7337162820543941
 40
1.0
 40
1.0
 40
1.0
 40
1.0
 10
775.3902177424628
 20
855.6054436394446
 30
0.0
 10
776.684415366929
 20
855.3071621072969
 30
0.0
 10
779.7075707088815
 20
854.6103972622143
 30
0.0
 10
784.5594544647624
 20
854.0086253636015
 30
0.0
 10
789.8921578246457
 20
853.6907047411164
 30
0.0
 10
793.4655511965769
 20
853.8424014379169
 30
0.0
 10
795.250023445626
 20
853.9181553551429
 30
0.0
  0
LINE
  5
BE
330
1F
100
AcDbEntity
  8
0
  6
PHANTOM
 62
     8
370
     0
100
AcDbLine
 10
856.8680944951
 20
837.5794046351
 30
0.0
 11
856.8680944951
 21
845.0015538165
 31
0.0
  0
ARC
  5
BF
330
1F
100
AcDbEntity
  8
0
  6
PHANTOM
 62
     8
370
     0
100
AcDbCircle
 10
856.8646225633
 20
840.0759321845
 30
0.0
 40
2.496529963591826
100
AcDbArc
 50
180.0797260297
 51
270.0796814399
  0
LINE
  5
C0
330
1F
100
AcDbEntity
  8
0
  6
PHANTOM
 62
     8
370
     0
100
AcDbLine
 10
904.8680949123
 20
837.5794046351
 30
0.0
 11
904.8680949123
 21
845.0015538165
 31
0.0
  0
ARC
  5
C1
330
1F
100
AcDbEntity
  8
0
  6
PHANTOM
 62
     8
370
     0
100
AcDbCircle
 10
904.8715668441
 20
840.0759321845
 30
0.0
 40
2.496529963591712
100
AcDbArc
 50
269.9203185601
 51
359.9202739703
  0
LINE
  5
C2
330
1F
100
AcDbEntity
  8
0
  6
PHANTOM
 62
     8
370
     0
100
AcDbLine
 10
904.8680949123
 20
837.5794046351
 30
0.0
 11
856.8680944951
 21
837.5794046351
 31
0.0
  0
SPLINE
  5
C3
330
1F
100
AcDbEntity
  8
0
  6
PHANTOM
 62
     8
370
     0
100
AcDbSpline
210
0.0
220
0.0
230
1.0
 70
     8
 71
     3
 72
    18
 73
    14
 74
     0
 42
0.000000001
 43
0.00000001
 40
0.0
 40
0.0
 40
0.0
 40
0.0
 40
0.0858296259221836
 40
0.1665403629458924
 40
0.2457941119164636
 40
0.3337514871267734
 40
0.430140255859375
 40
0.5349632339351303
 40
0.6351877301875922
 40
0.7263709830217799
 40
0.8175674245056854
 40
0.9087771035166883
 40
1.0
 40
1.0
 40
1.0
 40
1.0
 10
915.8182802708346
 20
844.4884770342582
 30
0.0
 10
917.3509294519937
 20
844.6416761983515
 30
0.0
 10
920.3248204384274
 20
844.9389377105272
 30
0.0
 10
924.6492031182916
 20
845.4510173963463
 30
0.0
 10
928.9487477327217
 20
846.020265054206
 30
0.0
 10
933.4515634127705
 20
846.6902959317129
 30
0.0
 10
938.3329122671554
 20
847.5016753283905
 30
0.0
 10
943.3702874425006
 20
848.4348166621859
 30
0.0
 10
948.2752652660355
 20
849.4395981977926
 30
0.0
 10
952.9477026667629
 20
850.4745409828689
 30
0.0
 10
957.4657302453232
 20
851.5485736176843
 30
0.0
 10
961.9792135938449
 20
852.6884389743436
 30
0.0
 10
964.9837759443342
 20
853.508230096573
 30
0.0
 10
966.4861659617621
 20
853.9181553551429
 30
0.0
  0
SPLINE
  5
C4
330
1F
100
AcDbEntity
  8
0
  6
PHANTOM
 62
     8
370
     0
100
AcDbSpline
210
0.0
220
0.0
230
1.0
 70
     8
 71
     3
 72
    11
 73
     7
 74
     0
 42
0.000000001
 43
0.00000001
 40
0.0
 40
0.0
 40
0.0
 40
0.0
 40
0.189311827926195
 40
0.3806726548281316
 40
0.6858959739638166
 40
1.0
 40
1.0
 40
1.0
 40
1.0
 10
909.868093869229
 20
845.4929792114966
 30
0.0
 10
910.5124569678484
 20
845.4296528476393
 30
0.0
 10
911.8081573692007
 20
845.3023147129106
 30
0.0
 10
913.6353026028393
 20
845.0674793157845
 30
0.0
 10
915.2439363773481
 20
844.7893682824026
 30
0.0
 10
915.630171798093
 20
844.5902226903404
 30
0.0
 10
915.8260586769778
 20
844.4892220923178
 30
0.0
  0
LWPOLYLINE
  5
C5
330
1F
100
AcDbEntity
  8
0
  6
PHANTOM
 62
     8
370
     0
100
AcDbPolyline
 90
        9
 70
   128
 43
0.0
 10
909.8680920066
 20
846.3808201977
 10
909.8680920066
 20
846.2627731988
 10
909.8680920066
 20
846.1467527577
 10
909.8680920066
 20
846.0327439734
 10
909.8680920066
 20
845.920761747
 10
909.8680920066
 20
845.8107911774
 10
909.8680920066
 20
845.7028322646
 10
909.8680920066
 20
845.5968999097
 10
909.8680938692
 20
845.4929792115
  0
LINE
  5
C6
330
1F
100
AcDbEntity
  8
0
  6
PHANTOM
 62
     8
370
     0
100
AcDbLine
 10
909.8680938692
 20
853.9181553551
 30
0.0
 11
909.8680938692
 21
846.4098029563
 31
0.0
  0
LINE
  5
C7
330
1F
100
AcDbEntity
  8
0
  6
PHANTOM
 62
     8
370
     0
100
AcDbLine
 10
851.8680955382
 20
853.9181553551
 30
0.0
 11
851.8680955382
 21
846.4098029563
 31
0.0
  0
LWPOLYLINE
  5
C8
330
1F
100
AcDbEntity
  8
0
  6
PHANTOM
 62
     8
370
     0
100
AcDbPolyline
 90
        9
 70
   128
 43
0.0
 10
851.8680974008
 20
846.3808201977
 10
851.8680974008
 20
846.2627731988
 10
851.8680974008
 20
846.1467527577
 10
851.8680974008
 20
846.0327439734
 10
851.8680974008
 20
845.920761747
 10
851.8680974008
 20
845.8107911774
 10
851.8680974008
 20
845.7028322646
 10
851.8680974008
 20
845.5968999097
 10
851.8680955382
 20
845.4929792115
  0
SPLINE
  5
C9
330
1F
100
AcDbEntity
  8
0
  6
PHANTOM
 62
     8
370
     0
100
AcDbSpline
210
0.0
220
0.0
230
1.0
 70
     8
 71
     3
 72
    11
 73
     7
 74
     0
 42
0.000000001
 43
0.00000001
 40
0.0
 40
0.0
 40
0.0
 40
0.0
 40
0.189311827926195
 40
0.3806726548281316
 40
0.6858959739638166
 40
1.0
 40
1.0
 40
1.0
 40
1.0
 10
851.8680955381591
 20
845.4929792114966
 30
0.0
 10
851.2237324395398
 20
845.4296528476393
 30
0.0
 10
849.9280320381876
 20
845.3023147129106
 30
0.0
 10
848.100886804549
 20
845.0674793157845
 30
0.0
 10
846.4922530300402
 20
844.7893682824026
 30
0.0
 10
846.1060176092951
 20
844.5902226903404
 30
0.0
 10
845.9101307304103
 20
844.4892220923178
 30
0.0
  0
SPLINE
  5
CA
330
1F
100
AcDbEntity
  8
0
  6
PHANTOM
 62
     8
370
     0
100
AcDbSpline
210
0.0
220
0.0
230
1.0
 70
     8
 71
     3
 72
    18
 73
    14
 74
     0
 42
0.000000001
 43
0.00000001
 40
0.0
 40
0.0
 40
0.0
 40
0.0
 40
0.0858296259221836
 40
0.1665403629458924
 40
0.2457941119164636
 40
0.3337514871267734
 40
0.430140255859375
 40
0.5349632339351303
 40
0.6351877301875922
 40
0.7263709830217799
 40
0.8175674245056854
 40
0.9087771035166883
 40
1.0
 40
1.0
 40
1.0
 40
1.0
 10
845.9179091365535
 20
844.4884770342582
 30
0.0
 10
844.3852599553945
 20
844.6416761983515
 30
0.0
 10
841.4113689689607
 20
844.9389377105272
 30
0.0
 10
837.0869862890966
 20
845.4510173963463
 30
0.0
 10
832.7874416746664
 20
846.020265054206
 30
0.0
 10
828.2846259946177
 20
846.6902959317129
 30
0.0
 10
823.4032771402327
 20
847.5016753283905
 30
0.0
 10
818.3659019648876
 20
848.4348166621859
 30
0.0
 10
813.4609241413527
 20
849.4395981977926
 30
0.0
 10
808.7884867406253
 20
850.4745409828689
 30
0.0
 10
804.270459162065
 20
851.5485736176843
 30
0.0
 10
799.7569758135434
 20
852.6884389743436
 30
0.0
 10
796.752413463054
 20
853.508230096573
 30
0.0
 10
795.250023445626
 20
853.9181553551429
 30
0.0
  0
ARC
  5
CB
330
1F
100
AcDbEntity
  8
0
  6
PHANTOM
 62
     8
370
     0
100
AcDbCircle
 10
909.8656306004
 20
842.9954429795
 30
0.0
 40
2.49753744668743
100
AcDbArc
 50
89.9434903645
 51
179.9429734408
  0
ARC
  5
CC
330
1F
100
AcDbEntity
  8
0
  6
PHANTOM
 62
     8
370
     0
100
AcDbCircle
 10
851.870558807
 20
842.9954429795
 30
0.0
 40
2.49753744668743
100
AcDbArc
 50
0.0570265592
 51
90.0565096355
  0
SPLINE
  5
CD
330
1F
100
AcDbEntity
  8
0
  6
PHANTOM
 62
     8
370
     0
100
AcDbSpline
210
0.0
220
0.0
230
1.0
 70
     8
 71
     3
 72
     9
 73
     5
 74
     0
 42
0.000000001
 43
0.00000001
 40
0.0
 40
0.0
 40
0.0
 40
0.0
 40
0.0000090771613598
 40
1.0
 40
1.0
 40
1.0
 40
1.0
 10
845.9088827581603
 20
844.4863461682074
 30
0.0
 10
845.9088815163857
 20
844.4863461682108
 30
0.0
 10
845.7720794254833
 20
844.486346547552
 30
0.0
 10
846.0438142575379
 20
844.361123881454
 30
0.0
 10
846.3155466230113
 20
844.2359023520224
 30
0.0
  0
LINE
  5
CE
330
1F
100
AcDbEntity
  8
0
  6
PHANTOM
 62
     8
370
     0
100
AcDbLine
 10
846.315546623
 20
844.235902352
 30
0.0
 11
846.7738728137
 21
844.1832565495
 31
0.0
  0
LINE
  5
CF
330
1F
100
AcDbEntity
  8
0
  6
PHANTOM
 62
     8
370
     0
100
AcDbLine
 10
915.4206427844
 20
844.235902352
 30
0.0
 11
914.9639296444
 21
844.1834502646
 31
0.0
  0
SPLINE
  5
D0
330
1F
100
AcDbEntity
  8
0
  6
PHANTOM
 62
     8
370
     0
100
AcDbSpline
210
0.0
220
0.0
230
1.0
 70
     8
 71
     3
 72
     9
 73
     5
 74
     0
 42
0.000000001
 43
0.00000001
 40
0.0
 40
0.0
 40
0.0
 40
0.0
 40
0.0000090771613598
 40
1.0
 40
1.0
 40
1.0
 40
1.0
 10
915.8273066492278
 20
844.4863461682074
 30
0.0
 10
915.8273078910025
 20
844.4863461682108
 30
0.0
 10
915.9641099819049
 20
844.486346547552
 30
0.0
 10
915.6923751498504
 20
844.361123881454
 30
0.0
 10
915.4206427843768
 20
844.2359023520224
 30
0.0
  0
LINE
  5
D1
330
1F
100
AcDbEntity
  8
0
  6
PHANTOM
 62
     8
370
     0
100
AcDbLine
 10
904.8680949123
 20
837.3578690716
 30
0.0
 11
904.8680949123
 21
837.5794046351
 31
0.0
  0
ARC
  5
D2
330
1F
100
AcDbEntity
  8
0
  6
PHANTOM
 62
     8
370
     0
100
AcDbCircle
 10
904.8715815099
 20
839.8543819144
 30
0.0
 40
2.496515277381997
100
AcDbArc
 50
269.9199815065
 51
359.920611024
  0
LINE
  5
D3
330
1F
100
AcDbEntity
  8
0
  6
PHANTOM
 62
     8
370
     0
100
AcDbLine
 10
856.8680944951
 20
837.3578690716
 30
0.0
 11
856.8680944951
 21
837.5794046351
 31
0.0
  0
ARC
  5
D4
330
1F
100
AcDbEntity
  8
0
  6
PHANTOM
 62
     8
370
     0
100
AcDbCircle
 10
856.8646078975
 20
839.8543819144
 30
0.0
 40
2.496515277381997
100
AcDbArc
 50
180.079388976
 51
270.0800184935
  0
LINE
  5
D5
330
1F
100
AcDbEntity
  8
0
  6
PHANTOM
 62
     8
370
     0
100
AcDbLine
 10
893.1368568079
 20
837.3578690716
 30
0.0
 11
904.8680949123
 21
837.3578690716
 31
0.0
  0
ELLIPSE
  5
D6
330
1F
100
AcDbEntity
  8
0
  6
PHANTOM
 62
     8
370
     0
100
AcDbEllipse
 10
880.8680947037
 20
834.9092005949
 30
0.0
 11
35.00000000000011
 21
0.0
 31
0.0
210
0.0
220
0.0
230
1.0
 40
0.0747016213
 41
1.212652901178973
 42
1.928939752410817
  0
LINE
  5
D7
330
1F
100
AcDbEntity
  8
0
  6
PHANTOM
 62
     8
370
     0
100
AcDbLine
 10
868.5993325995
 20
837.3578690716
 30
0.0
 11
856.8680944951
 21
837.3578690716
 31
0.0
  0
ARC
  5
D8
330
1F
100
AcDbEntity
  8
0
  6
PHANTOM
 62
     8
370
     0
100
AcDbCircle
 10
895.0351143013
 20
835.2900582312
 30
0.0
 40
2.806995401360187
100
AcDbArc
 50
132.5520393213
 51
188.7135133481
  0
ELLIPSE
  5
D9
330
1F
100
AcDbEntity
  8
0
  6
PHANTOM
 62
     8
370
     0
100
AcDbEllipse
 10
880.8680947037
 20
832.4161469515
 30
0.0
 11
32.5
 21
0.0
 31
0.0
210
0.0
220
0.0
230
1.0
 40
0.0804478999
 41
1.212652901178989
 42
1.928939752410805
  0
ARC
  5
DA
330
1F
100
AcDbEntity
  8
0
  6
PHANTOM
 62
     8
370
     0
100
AcDbCircle
 10
866.7010751061
 20
835.2900582312
 30
0.0
 40
2.806995401360264
100
AcDbArc
 50
351.2864866519
 51
47.4479606787
  0
LINE
  5
DB
330
1F
100
AcDbEntity
  8
0
  6
PHANTOM
 62
     8
370
     0
100
AcDbLine
 10
856.8680944951
 20
837.3509102294
 30
0.0
 11
856.8680944951
 21
837.3578690716
 31
0.0
  0
LINE
  5
DC
330
1F
100
AcDbEntity
  8
0
  6
PHANTOM
 62
     8
370
     0
100
AcDbLine
 10
893.1368568079
 20
837.3578690716
 30
0.0
 11
894.0893790783
 21
837.3509102294
 31
0.0
  0
LWPOLYLINE
  5
DD
330
1F
100
AcDbEntity
  8
0
  6
PHANTOM
 62
     8
370
     0
100
AcDbPolyline
 90
        9
 70
   128
 43
0.0
 10
894.0893790783
 20
837.3509102294
 10
893.90514019
 20
837.3028837868
 10
893.7279821472
 20
837.1606074998
 10
893.5647110553
 20
836.9295947978
 10
893.4216040285
 20
836.6186820695
 10
893.3041577326
 20
836.2398349473
 10
893.2168881507
 20
835.8076267668
 10
893.1631480442
 20
835.3386425206
 10
893.1450021551
 20
834.8509126136
  0
LINE
  5
DE
330
1F
100
AcDbEntity
  8
0
  6
PHANTOM
 62
     8
370
     0
100
AcDbLine
 10
893.1450021551
 20
834.8509126136
 30
0.0
 11
892.2605167241
 21
834.864815397
 31
0.0
  0
LINE
  5
DF
330
1F
100
AcDbEntity
  8
0
  6
PHANTOM
 62
     8
370
     0
100
AcDbLine
 10
904.8680949123
 20
837.3509102294
 30
0.0
 11
904.8680949123
 21
837.3578690716
 31
0.0
  0
LINE
  5
E0
330
1F
100
AcDbEntity
  8
0
  6
PHANTOM
 62
     8
370
     0
100
AcDbLine
 10
868.5911872522
 20
834.8509126136
 30
0.0
 11
869.4756726833
 21
834.864815397
 31
0.0
  0
LWPOLYLINE
  5
E1
330
1F
100
AcDbEntity
  8
0
  6
PHANTOM
 62
     8
370
     0
100
AcDbPolyline
 90
        9
 70
   128
 43
0.0
 10
867.6468103291
 20
837.3509102294
 10
867.8310492174
 20
837.3028837868
 10
868.0082072602
 20
837.1606074998
 10
868.1714783521
 20
836.9295947978
 10
868.3145853789
 20
836.6186820695
 10
868.4320316748
 20
836.2398349473
 10
868.5193012567
 20
835.8076267668
 10
868.5730413632
 20
835.3386425206
 10
868.5911872522
 20
834.8509126136
  0
LINE
  5
E2
330
1F
100
AcDbEntity
  8
0
  6
PHANTOM
 62
     8
370
     0
100
AcDbLine
 10
848.4808604331
 20
841.9264607856
 30
0.0
 11
848.4071294875
 21
841.9913106391
 31
0.0
  0
SPLINE
  5
E3
330
1F
100
AcDbEntity
  8
0
  6
PHANTOM
 62
     8
370
     0
100
AcDbSpline
210
0.0
220
0.0
230
1.0
 70
     8
 71
     3
 72
    11
 73
     7
 74
     0
 42
0.000000001
 43
0.00000001
 40
0.0
 40
0.0
 40
0.0
 40
0.0
 40
0.3052745509118757
 40
0.6194009740739712
 40
0.8086787375214467
 40
1.0
 40
1.0
 40
1.0
 40
1.0
 10
848.4071294875342
 20
841.9922792145484
 30
0.0
 10
848.5816375951864
 20
842.0905330579374
 30
0.0
 10
848.9357139226782
 20
842.289889755441
 30
0.0
 10
850.4154430804087
 20
842.5678575752543
 30
0.0
 10
852.1321504554095
 20
842.8061627478991
 30
0.0
 10
853.3349126884576
 20
842.9337783736415
 30
0.0
 10
853.9395227195222
 20
842.9979287811988
 30
0.0
  0
LINE
  5
E4
330
1F
100
AcDbEntity
  8
0
  6
PHANTOM
 62
     8
370
     0
100
AcDbLine
 10
853.9395227195
 20
842.9979287812
 30
0.0
 11
853.9395227195
 21
839.8509227463
 31
0.0
  0
SPLINE
  5
E5
330
1F
100
AcDbEntity
  8
0
  6
PHANTOM
 62
     8
370
     0
100
AcDbSpline
210
0.0
220
0.0
230
1.0
 70
     8
 71
     3
 72
    12
 73
     8
 74
     0
 42
0.000000001
 43
0.00000001
 40
0.0
 40
0.0
 40
0.0
 40
0.0
 40
0.1054872688156298
 40
0.2347675081412737
 40
0.4290206870869586
 40
0.7280244255805748
 40
1.0
 40
1.0
 40
1.0
 40
1.0
 10
853.9395227195222
 20
839.8509227463477
 30
0.0
 10
853.9584964718466
 20
839.5151991132337
 30
0.0
 10
854.0007235633555
 20
838.7680283725819
 30
0.0
 10
854.3951475503285
 20
837.555455597314
 30
0.0
 10
855.2582878503067
 20
836.2016717010455
 30
0.0
 10
856.6765991865733
 20
835.0970116141573
 30
0.0
 10
857.9674884285517
 20
834.9303153408663
 30
0.0
 10
858.5823799581725
 20
834.8509126135581
 30
0.0
  0
LINE
  5
E6
330
1F
100
AcDbEntity
  8
0
  6
PHANTOM
 62
     8
370
     0
100
AcDbLine
 10
858.5823799582
 20
834.8509126136
 30
0.0
 11
868.5911872522
 21
834.8509126136
 31
0.0
  0
LINE
  5
E7
330
1F
100
AcDbEntity
  8
0
  6
PHANTOM
 62
     8
370
     0
100
AcDbLine
 10
903.1538094492
 20
834.8509126136
 30
0.0
 11
893.1450021551
 21
834.8509126136
 31
0.0
  0
SPLINE
  5
E8
330
1F
100
AcDbEntity
  8
0
  6
PHANTOM
 62
     8
370
     0
100
AcDbSpline
210
0.0
220
0.0
230
1.0
 70
     8
 71
     3
 72
    12
 73
     8
 74
     0
 42
0.000000001
 43
0.00000001
 40
0.0
 40
0.0
 40
0.0
 40
0.0
 40
0.1054872688156298
 40
0.2347675081412737
 40
0.4290206870869586
 40
0.7280244255805748
 40
1.0
 40
1.0
 40
1.0
 40
1.0
 10
907.7966666878659
 20
839.8509227463477
 30
0.0
 10
907.7776929355416
 20
839.5151991132337
 30
0.0
 10
907.7354658440328
 20
838.7680283725819
 30
0.0
 10
907.3410418570596
 20
837.555455597314
 30
0.0
 10
906.4779015570815
 20
836.2016717010455
 30
0.0
 10
905.0595902208148
 20
835.0970116141573
 30
0.0
 10
903.7687009788365
 20
834.9303153408663
 30
0.0
 10
903.1538094492156
 20
834.8509126135581
 30
0.0
  0
LINE
  5
E9
330
1F
100
AcDbEntity
  8
0
  6
PHANTOM
 62
     8
370
     0
100
AcDbLine
 10
907.7966666879
 20
842.9979287812
 30
0.0
 11
907.7966666879
 21
839.8509227463
 31
0.0
  0
SPLINE
  5
EA
330
1F
100
AcDbEntity
  8
0
  6
PHANTOM
 62
     8
370
     0
100
AcDbSpline
210
0.0
220
0.0
230
1.0
 70
     8
 71
     3
 72
    11
 73
     7
 74
     0
 42
0.000000001
 43
0.00000001
 40
0.0
 40
0.0
 40
0.0
 40
0.0
 40
0.3052745509118757
 40
0.6194009740739712
 40
0.8086787375214467
 40
1.0
 40
1.0
 40
1.0
 40
1.0
 10
913.3290599198539
 20
841.9922792145484
 30
0.0
 10
913.1545518122017
 20
842.0905330579374
 30
0.0
 10
912.80047548471
 20
842.289889755441
 30
0.0
 10
911.3207463269795
 20
842.5678575752543
 30
0.0
 10
909.6040389519787
 20
842.8061627478991
 30
0.0
 10
908.4012767189306
 20
842.9337783736415
 30
0.0
 10
907.7966666878659
 20
842.9979287811988
 30
0.0
  0
LINE
  5
EB
330
1F
100
AcDbEntity
  8
0
  6
PHANTOM
 62
     8
370
     0
100
AcDbLine
 10
913.2553289743
 20
841.9264607856
 30
0.0
 11
913.3290599199
 21
841.9913106391
 31
0.0
  0
LINE
  5
EC
330
1F
100
AcDbEntity
  8
0
  6
PHANTOM
 62
     8
370
     0
100
AcDbLine
 10
848.3680958958
 20
828.370919151
 30
0.0
 11
913.3680935116
 21
828.370919151
 31
0.0
  0
ARC
  5
ED
330
1F
100
AcDbEntity
  8
0
  6
PHANTOM
 62
     8
370
     0
100
AcDbCircle
 10
905.3509741094
 20
835.1820385002
 30
0.0
 40
2.221975899196742
100
AcDbArc
 50
102.5516563035
 51
188.5703219399
  0
ARC
  5
EE
330
1F
100
AcDbEntity
  8
0
  6
PHANTOM
 62
     8
370
     0
100
AcDbCircle
 10
856.385215298
 20
835.1820385002
 30
0.0
 40
2.221975899196742
100
AcDbArc
 50
351.4296780601
 51
77.4483436965
  0
LINE
  5
EF
330
1F
100
AcDbEntity
  8
0
  6
PHANTOM
 62
     8
370
     0
100
AcDbLine
 10
907.3680943908
 20
839.8509227463
 30
0.0
 11
907.7966666879
 21
839.8509227463
 31
0.0
  0
LINE
  5
F0
330
1F
100
AcDbEntity
  8
0
  6
PHANTOM
 62
     8
370
     0
100
AcDbLine
 10
854.3680950166
 20
839.8509227463
 30
0.0
 11
853.9395227195
 21
839.8509227463
 31
0.0
  0
LINE
  5
F1
330
1F
100
AcDbEntity
  8
0
  6
PHANTOM
 62
     8
370
     0
100
AcDbLine
 10
854.3680950166
 20
842.9979287812
 30
0.0
 11
853.9395227195
 21
842.9979287812
 31
0.0
  0
LINE
  5
F2
330
1F
100
AcDbEntity
  8
0
  6
PHANTOM
 62
     8
370
     0
100
AcDbLine
 10
907.3680943908
 20
842.9979287812
 30
0.0
 11
907.7966666879
 21
842.9979287812
 31
0.0
  0
ARC
  5
F3
330
1F
100
AcDbEntity
  8
0
  6
PHANTOM
 62
     8
370
     0
100
AcDbCircle
 10
910.2091407985
 20
843.1024473747
 30
0.0
 40
2.414737143238255
100
AcDbArc
 50
98.1193533136
 51
182.4807444382
  0
ARC
  5
F4
330
1F
100
AcDbEntity
  8
0
  6
PHANTOM
 62
     8
370
     0
100
AcDbCircle
 10
851.5270486089
 20
843.1024473747
 30
0.0
 40
2.414737143238255
100
AcDbArc
 50
357.5192555618
 51
81.8806466864
  0
SPLINE
  5
F5
330
1F
100
AcDbEntity
  8
0
  6
PHANTOM
 62
     8
370
     0
100
AcDbSpline
210
0.0
220
0.0
230
1.0
 70
     8
 71
     3
 72
    11
 73
     7
 74
     0
 42
0.000000001
 43
0.00000001
 40
0.0
 40
0.0
 40
0.0
 40
0.0
 40
0.2499979402842118
 40
0.4999983291413088
 40
0.7499991293309238
 40
1.0
 40
1.0
 40
1.0
 40
1.0
 10
913.3290599198539
 20
841.9922792145484
 30
0.0
 10
913.3672667585334
 20
842.3189645350253
 30
0.0
 10
913.4436808101044
 20
842.972338375657
 30
0.0
 10
914.0214087165317
 20
843.7968811574161
 30
0.0
 10
914.8459723464459
 20
844.3745958418515
 30
0.0
 10
915.499363202767
 20
844.4510133385719
 30
0.0
 10
915.8260586769778
 20
844.4892220923178
 30
0.0
  0
SPLINE
  5
F6
330
1F
100
AcDbEntity
  8
0
  6
PHANTOM
 62
     8
370
     0
100
AcDbSpline
210
0.0
220
0.0
230
1.0
 70
     8
 71
     3
 72
    11
 73
     7
 74
     0
 42
0.000000001
 43
0.00000001
 40
0.0
 40
0.0
 40
0.0
 40
0.0
 40
0.2499979402842118
 40
0.4999983291413088
 40
0.7499991293309238
 40
1.0
 40
1.0
 40
1.0
 40
1.0
 10
848.4071294875342
 20
841.9922792145484
 30
0.0
 10
848.3689226488548
 20
842.3189645350253
 30
0.0
 10
848.2925085972838
 20
842.972338375657
 30
0.0
 10
847.7147806908565
 20
843.7968811574161
 30
0.0
 10
846.8902170609423
 20
844.3745958418515
 30
0.0
 10
846.2368262046213
 20
844.4510133385719
 30
0.0
 10
845.9101307304103
 20
844.4892220923178
 30
0.0
  0
LINE
  5
F7
330
1F
100
AcDbEntity
  8
0
  6
PHANTOM
 62
     8
370
     0
100
AcDbLine
 10
915.002192101
 20
844.1850148865
 30
0.0
 11
915.4206427844
 21
844.235902352
 31
0.0
  0
LINE
  5
F8
330
1F
100
AcDbEntity
  8
0
  6
PHANTOM
 62
     8
370
     0
100
AcDbLine
 10
846.7411722155
 20
844.1834949681
 30
0.0
 11
846.315546623
 21
844.235902352
 31
0.0
  0
LINE
  5
F9
330
1F
100
AcDbEntity
  8
0
  6
PHANTOM
 62
     8
370
     0
100
AcDbLine
 10
345.8680684777
 20
130.8708988854
 30
0.0
 11
255.8680947037
 21
130.8708988854
 31
0.0
  0
LINE
  5
FA
330
1F
100
AcDbEntity
  8
0
  6
PHANTOM
 62
     8
370
     0
100
AcDbLine
 10
1505.8680947037
 20
130.8708988854
 30
0.0
 11
1415.8681209297
 21
130.8708988854
 31
0.0
  0
LINE
  5
FB
330
1F
100
AcDbEntity
  8
0
  6
PHANTOM
 62
     8
370
     0
100
AcDbLine
 10
340.868073246
 20
887.8709130713
 30
0.0
 11
1420.8681161614
 21
887.8709130713
 31
0.0
  0
LINE
  5
FC
330
1F
100
AcDbEntity
  8
0
  6
PHANTOM
 62
     8
370
     0
100
AcDbLine
 10
1420.8681161614
 20
1017.8709138909
 30
0.0
 11
340.868073246
 21
1017.8709138909
 31
0.0
  0
ARC
  5
FD
330
1F
100
AcDbEntity
  8
0
  6
Continuous
 62
     7
370
    15
100
AcDbCircle
 10
1764.6830249233
 20
1022.8709131905
 30
0.0
 40
10.0
100
AcDbArc
 50
90.0
 51
180.0
  0
LINE
  5
FE
330
1F
100
AcDbEntity
  8
0
  6
Continuous
 62
     7
370
    15
100
AcDbLine
 10
1754.6830273125
 20
1022.8709147104
 30
0.0
 11
1754.6830273125
 21
133.8709198663
 31
0.0
  0
ARC
  5
FF
330
1F
100
AcDbEntity
  8
0
  6
Continuous
 62
     7
370
    15
100
AcDbCircle
 10
1752.6830249233
 20
130.8709131905
 30
0.0
 40
3.000000000000114
100
AcDbArc
 50
90.0
 51
180.0
  0
LINE
  5
100
330
1F
100
AcDbEntity
  8
0
  6
Continuous
 62
     7
370
    15
100
AcDbLine
 10
1749.6830320808
 20
130.8708988854
 30
0.0
 11
1749.6830320808
 21
113.8709389397
 31
0.0
  0
LINE
  5
101
330
1F
100
AcDbEntity
  8
0
  6
Continuous
 62
     7
370
    15
100
AcDbLine
 10
1794.6830189678
 20
1022.8709147104
 30
0.0
 11
1794.6830189678
 21
133.8709198663
 31
0.0
  0
LINE
  5
102
330
1F
100
AcDbEntity
  8
0
  6
Continuous
 62
     7
370
    15
100
AcDbLine
 10
1794.6830189678
 20
1022.8709147104
 30
0.0
 11
2394.7357929203
 21
1022.8709147104
 31
0.0
  0
LINE
  5
103
330
1F
100
AcDbEntity
  8
0
  6
Continuous
 62
     7
370
    15
100
AcDbLine
 10
2394.7357929203
 20
1022.8709147104
 30
0.0
 11
2394.7357929203
 21
133.8709198663
 31
0.0
  0
LINE
  5
104
330
1F
100
AcDbEntity
  8
0
  6
Continuous
 62
     7
370
    15
100
AcDbLine
 10
1794.6830189678
 20
1032.8709126243
 30
0.0
 11
2394.7362697575
 21
1032.8709126243
 31
0.0
  0
ELLIPSE
  5
105
330
1F
100
AcDbEntity
  8
0
  6
Continuous
 62
     7
370
    15
100
AcDbEllipse
 10
2394.7362734796
 20
1022.8709131905
 30
0.0
 11
0.0
 21
10.0
 31
0.0
210
0.0
220
0.0
230
1.0
 40
0.0000067803
 41
4.71238898038469
 42
6.283185307179586
  0
LINE
  5
106
330
1F
100
AcDbEntity
  8
0
  6
Continuous
 62
     7
370
    15
100
AcDbLine
 10
1794.6830189678
 20
1022.8709147104
 30
0.0
 11
2394.7363293621
 21
1022.8709147104
 31
0.0
  0
LINE
  5
107
330
1F
100
AcDbEntity
  8
0
  6
Continuous
 62
     7
370
    15
100
AcDbLine
 10
1764.6830177757
 20
1032.8709126243
 30
0.0
 11
1794.6830189678
 21
1032.8709126243
 31
0.0
  0
LINE
  5
108
330
1F
100
AcDbEntity
  8
0
  6
Continuous
 62
     7
370
    15
100
AcDbLine
 10
1754.6830273125
 20
1022.8709147104
 30
0.0
 11
1794.6830189678
 21
1022.8709147104
 31
0.0
  0
LINE
  5
109
330
1F
100
AcDbEntity
  8
0
  6
Continuous
 62
     7
370
    15
100
AcDbLine
 10
2394.7362101528
 20
1002.8709132948
 30
0.0
 11
2394.7357929203
 21
1002.8709132948
 31
0.0
  0
LINE
  5
10A
330
1F
100
AcDbEntity
  8
0
  6
Continuous
 62
     7
370
    15
100
AcDbLine
 10
2394.7362101528
 20
1002.8709132948
 30
0.0
 11
2394.7362101528
 21
1022.8709147104
 31
0.0
  0
LINE
  5
10B
330
1F
100
AcDbEntity
  8
0
  6
Continuous
 62
     7
370
    15
100
AcDbLine
 10
1794.6830189678
 20
133.8709198663
 30
0.0
 11
2394.7357929203
 21
133.8709198663
 31
0.0
  0
LINE
  5
10C
330
1F
100
AcDbEntity
  8
0
  6
Continuous
 62
     7
370
    15
100
AcDbLine
 10
2394.7357929203
 20
133.8709198663
 30
0.0
 11
2394.7357929203
 21
130.8708988854
 31
0.0
  0
LINE
  5
10D
330
1F
100
AcDbEntity
  8
0
  6
Continuous
 62
     7
370
    15
100
AcDbLine
 10
2394.7357929203
 20
113.8709389397
 30
0.0
 11
1794.6830189678
 21
113.8709389397
 31
0.0
  0
LINE
  5
10E
330
1F
100
AcDbEntity
  8
0
  6
Continuous
 62
     7
370
    15
100
AcDbLine
 10
2394.7357929203
 20
113.8709389397
 30
0.0
 11
2394.7357929203
 21
130.8708988854
 31
0.0
  0
LINE
  5
10F
330
1F
100
AcDbEntity
  8
0
  6
Continuous
 62
     7
370
    15
100
AcDbLine
 10
1752.6830232594
 20
133.8709198663
 30
0.0
 11
1794.6830189678
 21
133.8709198663
 31
0.0
  0
LINE
  5
110
330
1F
100
AcDbEntity
  8
0
  6
Continuous
 62
     7
370
    15
100
AcDbLine
 10
1794.6830189678
 20
113.8709389397
 30
0.0
 11
1749.6830320808
 21
113.8709389397
 31
0.0
  0
LINE
  5
111
330
1F
100
AcDbEntity
  8
0
  6
Continuous
 62
     7
370
    15
100
AcDbLine
 10
2394.7363293621
 20
887.8709130713
 30
0.0
 11
2394.7363293621
 21
1017.8709138909
 31
0.0
  0
LINE
  5
112
330
1F
100
AcDbEntity
  8
0
  6
PHANTOM
 62
     8
370
     0
100
AcDbLine
 10
1794.6830189678
 20
1022.8709147104
 30
0.0
 11
1794.6830189678
 21
1032.8709126243
 31
0.0
  0
LINE
  5
113
330
1F
100
AcDbEntity
  8
0
  6
PHANTOM
 62
     8
370
     0
100
AcDbLine
 10
2394.7357929203
 20
130.8708988854
 30
0.0
 11
1794.6830189678
 21
130.8708988854
 31
0.0
  0
LINE
  5
114
330
1F
100
AcDbEntity
  8
0
  6
PHANTOM
 62
     8
370
     0
100
AcDbLine
 10
1794.6830189678
 20
133.8709198663
 30
0.0
 11
1794.6830189678
 21
130.8708988854
 31
0.0
  0
LINE
  5
115
330
1F
100
AcDbEntity
  8
0
  6
PHANTOM
 62
     8
370
     0
100
AcDbLine
 10
1794.6830189678
 20
113.8709389397
 30
0.0
 11
1794.6830189678
 21
130.8708988854
 31
0.0
  0
LINE
  5
116
330
1F
100
AcDbEntity
  8
0
  6
PHANTOM
 62
     8
370
     0
100
AcDbLine
 10
1794.6830189678
 20
130.8708988854
 30
0.0
 11
1749.6830320808
 21
130.8708988854
 31
0.0
  0
SPLINE
  5
117
330
1F
100
AcDbEntity
  8
0
  6
Continuous
 62
     7
370
    15
100
AcDbSpline
210
0.0
220
0.0
230
1.0
 70
     8
 71
     3
 72
    27
 73
    23
 74
     0
 42
0.000000001
 43
0.00000001
 40
0.0
 40
0.0
 40
0.0
 40
0.0
 40
0.0501386920274746
 40
0.1002779506046046
 40
0.1503812474023302
 40
0.2004845487290853
 40
0.2504117752613053
 40
0.3003381374575864
 40
0.3501019689623807
 40
0.3998645339633368
 40
0.4496145224831962
 40
0.4993638879702784
 40
0.5492618435993182
 40
0.5991604075699938
 40
0.64924141290941
 40
0.699323728432188
 40
0.7494882520952502
 40
0.799653703801788
 40
0.8497773322300369
 40
0.899900975264945
 40
0.9499507852088019
 40
1.0
 40
1.0
 40
1.0
 40
1.0
 10
858.5199180157381
 20
1474.595811105635
 30
0.0
 10
858.4357935356271
 20
1473.329499739235
 30
0.0
 10
858.2675436248281
 20
1470.79686269756
 30
0.0
 10
858.8199437351446
 20
1467.013748001033
 30
0.0
 10
859.9652231084928
 20
1463.38215952092
 30
0.0
 10
861.702666352265
 20
1459.993520373525
 30
0.0
 10
863.9887764835963
 20
1456.954928317948
 30
0.0
 10
866.7385779200422
 20
1454.337162230169
 30
0.0
 10
869.8933226910509
 20
1452.228201115493
 30
0.0
 10
873.3492545975654
 20
1450.66494720989
 30
0.0
 10
877.0231877245725
 20
1449.714139145855
 30
0.0
 10
880.8079586451794
 20
1449.377668130757
 30
0.0
 10
884.5983986673639
 20
1449.69406133967
 30
0.0
 10
888.2922782034326
 20
1450.630692727026
 30
0.0
 10
891.7730415100009
 20
1452.18813832547
 30
0.0
 10
894.9529527930064
 20
1454.299914163759
 30
0.0
 10
897.7229068462559
 20
1456.92603781765
 30
0.0
 10
900.0206438725834
 20
1459.971883065756
 30
0.0
 10
901.7641347641095
 20
1463.365373295958
 30
0.0
 10
902.9118419515835
 20
1466.994928722921
 30
0.0
 10
903.4669389804324
 20
1470.773458194407
 30
0.0
 10
903.3021415750076
 20
1473.301756224272
 30
0.0
 10
903.219743362208
 20
1474.565897723031
 30
0.0
  0
SPLINE
  5
118
330
1F
100
AcDbEntity
  8
0
  6
Continuous
 62
     7
370
    15
100
AcDbSpline
210
0.0
220
0.0
230
1.0
 70
     8
 71
     3
 72
    11
 73
     7
 74
     0
 42
0.000000001
 43
0.00000001
 40
0.0
 40
0.0
 40
0.0
 40
0.0
 40
0.2593944320079435
 40
0.5098927364546499
 40
0.7510091872201305
 40
1.0
 40
1.0
 40
1.0
 40
1.0
 10
903.2197508127886
 20
1474.565835324418
 30
0.0
 10
902.9802320090266
 20
1475.968785931862
 30
0.0
 10
902.5094088794124
 20
1478.726571898211
 30
0.0
 10
900.8655956289455
 20
1482.525634126609
 30
0.0
 10
898.6885432781444
 20
1485.973240286312
 30
0.0
 10
896.7718119945675
 20
1487.860505700751
 30
0.0
 10
895.7980486662584
 20
1488.819299386185
 30
0.0
  0
SPLINE
  5
119
330
1F
100
AcDbEntity
  8
0
  6
Continuous
 62
     7
370
    15
100
AcDbSpline
210
0.0
220
0.0
230
1.0
 70
     8
 71
     3
 72
    12
 73
     8
 74
     0
 42
0.000000001
 43
0.00000001
 40
0.0
 40
0.0
 40
0.0
 40
0.0
 40
0.0752299717836747
 40
0.3028754119525067
 40
0.5371154117879418
 40
0.7652404088593393
 40
1.0
 40
1.0
 40
1.0
 40
1.0
 10
865.9647970558601
 20
1488.842904688161
 30
0.0
 10
865.6608559542143
 20
1488.56479182283
 30
0.0
 10
864.437190915033
 20
1487.445111107027
 30
0.0
 10
862.5211754698474
 20
1485.191735596003
 30
0.0
 10
860.5769809312914
 20
1481.939647765602
 30
0.0
 10
859.1513142254893
 20
1478.369876264291
 30
0.0
 10
858.7323800009117
 20
1475.865750572254
 30
0.0
 10
858.5199105651575
 20
1474.595741722103
 30
0.0
  0
SPLINE
  5
11A
330
1F
100
AcDbEntity
  8
0
  6
Continuous
 62
     7
370
    15
100
AcDbSpline
210
0.0
220
0.0
230
1.0
 70
     8
 71
     3
 72
    17
 73
    13
 74
     0
 42
0.000000001
 43
0.00000001
 40
0.0
 40
0.0
 40
0.0
 40
0.0
 40
0.0008384014287292
 40
0.0697486600836782
 40
0.1843966979236357
 40
0.3023708779677822
 40
0.4170136549335827
 40
0.5349824105297672
 40
0.6496326156781996
 40
0.7676095133455473
 40
0.8821467150493566
 40
1.0
 40
1.0
 40
1.0
 40
1.0
 10
895.7980235205489
 20
1488.819321737927
 30
0.0
 10
895.7912118281926
 20
1488.825358393917
 30
0.0
 10
895.2245305243653
 20
1489.327562531805
 30
0.0
 10
893.658162748595
 20
1490.579764585148
 30
0.0
 10
890.8390164354294
 20
1492.27570417014
 30
0.0
 10
887.3097909944281
 20
1493.656029303731
 30
0.0
 10
883.5643195063224
 20
1494.432031284572
 30
0.0
 10
879.7770587147486
 20
1494.566507933057
 30
0.0
 10
875.9841309048066
 20
1494.061256183594
 30
0.0
 10
872.3728264394382
 20
1492.928340036098
 30
0.0
 10
868.9415349360354
 20
1491.223982274757
 30
0.0
 10
866.9664511251932
 20
1489.644123582636
 30
0.0
 10
865.9648175449568
 20
1488.84292238329
 30
0.0
  0
LINE
  5
11B
330
1F
100
AcDbEntity
  8
0
  6
Continuous
 62
     7
370
    15
100
AcDbLine
 10
1500.8680994721
 20
1201.999817164
 30
0.0
 11
1500.8680994721
 21
1802.0525911165
 31
0.0
  0
LINE
  5
11C
330
1F
100
AcDbEntity
  8
0
  6
Continuous
 62
     7
370
    15
100
AcDbLine
 10
260.8680899353
 20
1802.0525911165
 30
0.0
 11
260.8680899353
 21
1201.999817164
 31
0.0
  0
LINE
  5
11D
330
1F
100
AcDbEntity
  8
0
  6
Continuous
 62
     7
370
    15
100
AcDbLine
 10
1420.8681161614
 20
1802.0525911165
 30
0.0
 11
1420.8681161614
 21
1201.999817164
 31
0.0
  0
LWPOLYLINE
  5
11E
330
1F
100
AcDbEntity
  8
0
  6
Continuous
 62
     7
370
    15
100
AcDbPolyline
 90
        9
 70
   128
 43
0.0
 10
1420.8681161614
 20
1802.0525911165
 10
1421.0602219315
 20
1802.0525911165
 10
1421.6293270798
 20
1802.0525911165
 10
1422.5533778877
 20
1802.0526209188
 10
1423.797028801
 20
1802.0526209188
 10
1425.3124172898
 20
1802.0526209188
 10
1427.0412500115
 20
1802.0526507211
 10
1428.9171869965
 20
1802.0526507211
 10
1430.8681066246
 20
1802.0526507211
  0
LINE
  5
11F
330
1F
100
AcDbEntity
  8
0
  6
Continuous
 62
     7
370
    15
100
AcDbLine
 10
1500.8680994721
 20
1201.999817164
 30
0.0
 11
1500.8680994721
 21
1802.0531275583
 31
0.0
  0
LWPOLYLINE
  5
120
330
1F
100
AcDbEntity
  8
0
  6
Continuous
 62
     7
370
    15
100
AcDbPolyline
 90
        9
 70
   128
 43
0.0
 10
1490.8681090088
 20
1802.0530679536
 10
1492.8189690323
 20
1802.053097756
 10
1494.6949060173
 20
1802.053097756
 10
1496.4237983437
 20
1802.053097756
 10
1497.9391868324
 20
1802.0531275583
 10
1499.182778141
 20
1802.0531275583
 10
1500.1068885536
 20
1802.0531275583
 10
1500.6759340973
 20
1802.0531275583
 10
1500.8680994721
 20
1802.0531275583
  0
LINE
  5
121
330
1F
100
AcDbEntity
  8
0
  6
Continuous
 62
     7
370
    15
100
AcDbLine
 10
1490.8681090088
 20
1802.0530679536
 30
0.0
 11
1430.8681066246
 21
1802.0526507211
 31
0.0
  0
ARC
  5
122
330
1F
100
AcDbEntity
  8
0
  6
Continuous
 62
     7
370
    15
100
AcDbCircle
 10
1460.8680947037
 20
1201.9998231194
 30
0.0
 40
40.0
100
AcDbArc
 50
180.0
 51
0.0
  0
LWPOLYLINE
  5
123
330
1F
100
AcDbEntity
  8
0
  6
Continuous
 62
     7
370
    15
100
AcDbPolyline
 90
        9
 70
   128
 43
0.0
 10
260.8680899353
 20
1802.0525911165
 10
261.0602553101
 20
1802.0525911165
 10
261.6293008537
 20
1802.0525911165
 10
262.5534112663
 20
1802.0526209188
 10
263.7970025749
 20
1802.0526209188
 10
265.3123910637
 20
1802.0526209188
 10
267.0412833901
 20
1802.0526507211
 10
268.9172203751
 20
1802.0526507211
 10
270.8680803986
 20
1802.0526507211
  0
LINE
  5
124
330
1F
100
AcDbEntity
  8
0
  6
Continuous
 62
     7
370
    15
100
AcDbLine
 10
340.868073246
 20
1201.999817164
 30
0.0
 11
340.868073246
 21
1802.0531275583
 31
0.0
  0
LWPOLYLINE
  5
125
330
1F
100
AcDbEntity
  8
0
  6
Continuous
 62
     7
370
    15
100
AcDbPolyline
 90
        9
 70
   128
 43
0.0
 10
330.8680827828
 20
1802.0530679536
 10
332.8190024109
 20
1802.053097756
 10
334.6949393959
 20
1802.053097756
 10
336.4237721176
 20
1802.053097756
 10
337.9391606064
 20
1802.0531275583
 10
339.1828115196
 20
1802.0531275583
 10
340.1068623276
 20
1802.0531275583
 10
340.6759674759
 20
1802.0531275583
 10
340.868073246
 20
1802.0531275583
  0
LINE
  5
126
330
1F
100
AcDbEntity
  8
0
  6
Continuous
 62
     7
370
    15
100
AcDbLine
 10
330.8680827828
 20
1802.0530679536
 30
0.0
 11
270.8680803986
 21
1802.0526507211
 31
0.0
  0
ARC
  5
127
330
1F
100
AcDbEntity
  8
0
  6
Continuous
 62
     7
370
    15
100
AcDbCircle
 10
300.8680947037
 20
1201.9998231194
 30
0.0
 40
39.99999999999983
100
AcDbArc
 50
180.0
 51
0.0
  0
LINE
  5
128
330
1F
100
AcDbEntity
  8
0
  6
Continuous
 62
     7
370
    15
100
AcDbLine
 10
255.8680947037
 20
1201.999817164
 30
0.0
 11
255.8680947037
 21
1802.0525911165
 31
0.0
  0
LINE
  5
129
330
1F
100
AcDbEntity
  8
0
  6
Continuous
 62
     7
370
    15
100
AcDbLine
 10
255.8680947037
 20
1802.0525911165
 30
0.0
 11
258.8681156845
 21
1802.0525911165
 31
0.0
  0
LINE
  5
12A
330
1F
100
AcDbEntity
  8
0
  6
Continuous
 62
     7
370
    15
100
AcDbLine
 10
345.8680684777
 20
1202.0531335187
 30
0.0
 11
345.8680684777
 21
1201.999817164
 31
0.0
  0
LINE
  5
12B
330
1F
100
AcDbEntity
  8
0
  6
Continuous
 62
     7
370
    15
100
AcDbLine
 10
258.8681156845
 20
1802.0525911165
 30
0.0
 11
260.8680899353
 21
1802.0525911165
 31
0.0
  0
ARC
  5
12C
330
1F
100
AcDbEntity
  8
0
  6
Continuous
 62
     7
370
    15
100
AcDbCircle
 10
300.8680946988
 20
1201.9998231194
 30
0.0
 40
44.99999999999972
100
AcDbArc
 50
180.0
 51
0.0
  0
LINE
  5
12D
330
1F
100
AcDbEntity
  8
0
  6
Continuous
 62
     7
370
    15
100
AcDbLine
 10
1500.8680994721
 20
1802.0525911165
 30
0.0
 11
1502.8680737229
 21
1802.0525911165
 31
0.0
  0
LINE
  5
12E
330
1F
100
AcDbEntity
  8
0
  6
Continuous
 62
     7
370
    15
100
AcDbLine
 10
1415.8681209297
 20
1201.999817164
 30
0.0
 11
1415.8681209297
 21
1202.0531335187
 31
0.0
  0
LINE
  5
12F
330
1F
100
AcDbEntity
  8
0
  6
Continuous
 62
     7
370
    15
100
AcDbLine
 10
1505.8680947037
 20
1802.0525911165
 30
0.0
 11
1505.8680947037
 21
1201.999817164
 31
0.0
  0
LINE
  5
130
330
1F
100
AcDbEntity
  8
0
  6
Continuous
 62
     7
370
    15
100
AcDbLine
 10
1502.8680737229
 20
1802.0525911165
 30
0.0
 11
1505.8680947037
 21
1802.0525911165
 31
0.0
  0
ARC
  5
131
330
1F
100
AcDbEntity
  8
0
  6
Continuous
 62
     7
370
    15
100
AcDbCircle
 10
1460.8680947037
 20
1201.9998231194
 30
0.0
 40
44.99999999999977
100
AcDbArc
 50
180.0
 51
0.0
  0
LINE
  5
132
330
1F
100
AcDbEntity
  8
0
  6
Continuous
 62
     7
370
    15
100
AcDbLine
 10
340.868073246
 20
1201.999817164
 30
0.0
 11
340.868073246
 21
1802.0525911165
 31
0.0
  0
LINE
  5
133
330
1F
100
AcDbEntity
  8
0
  6
Continuous
 62
     7
370
    15
100
AcDbLine
 10
340.868073246
 20
1232.0531347108
 30
0.0
 11
1420.8681161614
 21
1232.0531347108
 31
0.0
  0
LINE
  5
134
330
1F
100
AcDbEntity
  8
0
  6
Continuous
 62
     7
370
    15
100
AcDbLine
 10
340.868073246
 20
1207.0531287504
 30
0.0
 11
340.868073246
 21
1227.0531394792
 31
0.0
  0
LINE
  5
135
330
1F
100
AcDbEntity
  8
0
  6
Continuous
 62
     7
370
    15
100
AcDbLine
 10
1420.8681161614
 20
1207.0531287504
 30
0.0
 11
1420.8681161614
 21
1227.0531394792
 31
0.0
  0
LINE
  5
136
330
1F
100
AcDbEntity
  8
0
  6
Continuous
 62
     7
370
    15
100
AcDbLine
 10
1420.8681161614
 20
1202.0531335187
 30
0.0
 11
340.868073246
 21
1202.0531335187
 31
0.0
  0
LINE
  5
137
330
1F
100
AcDbEntity
  8
0
  6
Continuous
 62
     7
370
    15
100
AcDbLine
 10
340.868073246
 20
1802.0531275583
 30
0.0
 11
1420.8681161614
 21
1802.0531275583
 31
0.0
  0
LINE
  5
138
330
1F
100
AcDbEntity
  8
0
  6
Continuous
 62
     7
370
    15
100
AcDbLine
 10
340.868073246
 20
1797.0531323266
 30
0.0
 11
340.868073246
 21
1777.0531514001
 31
0.0
  0
LINE
  5
139
330
1F
100
AcDbEntity
  8
0
  6
Continuous
 62
     7
370
    15
100
AcDbLine
 10
1420.8681161614
 20
1777.0531514001
 30
0.0
 11
1420.8681161614
 21
1797.0531323266
 31
0.0
  0
LINE
  5
13A
330
1F
100
AcDbEntity
  8
0
  6
Continuous
 62
     7
370
    15
100
AcDbLine
 10
1420.8681161614
 20
1772.0531263662
 30
0.0
 11
340.868073246
 21
1772.0531263662
 31
0.0
  0
CIRCLE
  5
13B
330
1F
100
AcDbEntity
  8
0
  6
Continuous
 62
     7
370
    15
100
AcDbCircle
 10
780.8680947037
 20
1655.0531394792
 30
0.0
 40
16.0
  0
CIRCLE
  5
13C
330
1F
100
AcDbEntity
  8
0
  6
Continuous
 62
     7
370
    15
100
AcDbCircle
 10
980.8680947037
 20
1655.0531394792
 30
0.0
 40
16.0
  0
CIRCLE
  5
13D
330
1F
100
AcDbEntity
  8
0
  6
Continuous
 62
     7
370
    15
100
AcDbCircle
 10
880.8680947037
 20
1655.0531394792
 30
0.0
 40
17.50000000000023
  0
ARC
  5
13E
330
1F
100
AcDbEntity
  8
0
  6
Continuous
 62
     7
370
    15
100
AcDbCircle
 10
1086.8680947037
 20
1565.0531394792
 30
0.0
 40
19.99999999999977
100
AcDbArc
 50
0.0
 51
90.0
  0
LINE
  5
13F
330
1F
100
AcDbEntity
  8
0
  6
Continuous
 62
     7
370
    15
100
AcDbLine
 10
1086.8680949421
 20
1585.0531422806
 30
0.0
 11
674.8680944653
 21
1585.0531422806
 31
0.0
  0
ARC
  5
140
330
1F
100
AcDbEntity
  8
0
  6
Continuous
 62
     7
370
    15
100
AcDbCircle
 10
674.8680947037
 20
1565.0531394792
 30
0.0
 40
19.99999999999989
100
AcDbArc
 50
90.0
 51
180.0
  0
LINE
  5
141
330
1F
100
AcDbEntity
  8
0
  6
Continuous
 62
     7
370
    15
100
AcDbLine
 10
1106.8680907698
 20
1332.0531436515
 30
0.0
 11
1106.8680907698
 21
1565.0531390024
 31
0.0
  0
LINE
  5
142
330
1F
100
AcDbEntity
  8
0
  6
Continuous
 62
     7
370
    15
100
AcDbLine
 10
654.8680986376
 20
1565.0531390024
 30
0.0
 11
654.8680986376
 21
1332.0531436515
 31
0.0
  0
ARC
  5
143
330
1F
100
AcDbEntity
  8
0
  6
Continuous
 62
     7
370
    15
100
AcDbCircle
 10
1086.8680947037
 20
1332.0531394792
 30
0.0
 40
20.0
100
AcDbArc
 50
270.0
 51
0.0
  0
ARC
  5
144
330
1F
100
AcDbEntity
  8
0
  6
Continuous
 62
     7
370
    15
100
AcDbCircle
 10
674.8680947037
 20
1332.0531394792
 30
0.0
 40
20.0
100
AcDbArc
 50
180.0
 51
270.0
  0
LINE
  5
145
330
1F
100
AcDbEntity
  8
0
  6
Continuous
 62
     7
370
    15
100
AcDbLine
 10
674.8680944653
 20
1312.0531329227
 30
0.0
 11
1086.8680949421
 21
1312.0531329227
 31
0.0
  0
SPLINE
  5
146
330
1F
100
AcDbEntity
  8
0
  6
PHANTOM
 62
     8
370
     0
100
AcDbSpline
210
0.0
220
0.0
230
1.0
 70
     8
 71
     3
 72
    18
 73
    14
 74
     0
 42
0.000000001
 43
0.00000001
 40
0.0
 40
0.0
 40
0.0
 40
0.0
 40
0.0525356242146905
 40
0.1273402268074059
 40
0.201961407876196
 40
0.3011804855526226
 40
0.4006178444470845
 40
0.5001019776772847
 40
0.5993849092956023
 40
0.6994518960533818
 40
0.7996865651111068
 40
0.8999262306808573
 40
1.0
 40
1.0
 40
1.0
 40
1.0
 10
720.114412447949
 20
1585.05314228062
 30
0.0
 10
722.4455319448266
 20
1584.595500780613
 30
0.0
 10
728.0958937685383
 20
1583.486231151129
 30
0.0
 10
737.6671411877171
 20
1581.657909277886
 30
0.0
 10
749.8029069615897
 20
1579.425240546494
 30
0.0
 10
763.6263762308013
 20
1577.046971393137
 30
0.0
 10
779.1634331741818
 20
1574.621097803388
 30
0.0
 10
795.0787774394777
 20
1572.42584742142
 30
0.0
 10
811.3231145560255
 20
1570.522989511944
 30
0.0
 10
827.8424740445054
 20
1568.979644909185
 30
0.0
 10
844.5907689985335
 20
1567.832004187897
 30
0.0
 10
861.4573385792588
 20
1567.065222883952
 30
0.0
 10
872.7425617437756
 20
1566.931004217018
 30
0.0
 10
878.3805002090978
 20
1566.863950462382
 30
0.0
  0
LWPOLYLINE
  5
147
330
1F
100
AcDbEntity
  8
0
  6
PHANTOM
 62
     8
370
     0
100
AcDbPolyline
 90
       12
 70
   128
 43
0.0
 10
878.1381346849
 20
1531.4709359122
 10
878.1518959073
 20
1535.4140588355
 10
878.1678836891
 20
1539.3187740159
 10
878.1859429651
 20
1543.1470387888
 10
878.2058974826
 20
1546.8615555478
 10
878.227552828
 20
1550.4261517239
 10
878.2506980566
 20
1553.8060927105
 10
878.2751077884
 20
1556.9684618426
 10
878.3005443034
 20
1559.8824435187
 10
878.3267596369
 20
1562.5196510268
 10
878.3534983737
 20
1564.8544022155
 10
878.3805002091
 20
1566.8639504624
  0
SPLINE
  5
148
330
1F
100
AcDbEntity
  8
0
  6
PHANTOM
 62
     8
370
     0
100
AcDbSpline
210
0.0
220
0.0
230
1.0
 70
     8
 71
     3
 72
    24
 73
    20
 74
     0
 42
0.000000001
 43
0.00000001
 40
0.0
 40
0.0
 40
0.0
 40
0.0
 40
0.0746838627471703
 40
0.1494481719591123
 40
0.2242084763893301
 40
0.2988868750305156
 40
0.3735353177425959
 40
0.4482915168253642
 40
0.5230168336815765
 40
0.5976231133368941
 40
0.6560932704428575
 40
0.7146865697144591
 40
0.7732119803169115
 40
0.8315892710747232
 40
0.8696536735939825
 40
0.9077528883924159
 40
0.9457877213946598
 40
0.9817324916130635
 40
0.9999999999999999
 40
0.9999999999999999
 40
0.9999999999999999
 40
0.9999999999999999
 10
878.138134684925
 20
1531.470935912173
 30
0.0
 10
871.945872162451
 20
1531.525709822324
 30
0.0
 10
859.5546770604041
 20
1531.635316642887
 30
0.0
 10
841.0111174433706
 20
1532.261826684717
 30
0.0
 10
822.5521677778029
 20
1533.199455812545
 30
0.0
 10
804.2296614836308
 20
1534.462364197998
 30
0.0
 10
786.0775062414918
 20
1536.022962080186
 30
0.0
 10
768.1436601343173
 20
1537.824074617413
 30
0.0
 10
750.5004810566313
 20
1539.805082133484
 30
0.0
 10
734.4786995062078
 20
1541.755425001798
 30
0.0
 10
720.0511006231205
 20
1543.597664023408
 30
0.0
 10
707.1904236988079
 20
1545.267913987117
 30
0.0
 10
694.799543481821
 20
1546.86828824692
 30
0.0
 10
684.3779455697734
 20
1548.172815764273
 30
0.0
 10
675.8192284720553
 20
1549.184944222989
 30
0.0
 10
668.949857046998
 20
1549.948424647708
 30
0.0
 10
662.7376082980456
 20
1550.582178979287
 30
0.0
 10
657.9869854769622
 20
1551.017266554386
 30
0.0
 10
655.6541700909012
 20
1551.198787788619
 30
0.0
 10
654.8680986376005
 20
1551.259953649085
 30
0.0
  0
LWPOLYLINE
  5
149
330
1F
100
AcDbEntity
  8
0
  6
PHANTOM
 62
     8
370
     0
100
AcDbPolyline
 90
       12
 70
   128
 43
0.0
 10
883.5980547225
 20
1531.4709359122
 10
883.5842935001
 20
1535.4140588355
 10
883.5683057183
 20
1539.3187740159
 10
883.5502464422
 20
1543.1470387888
 10
883.5302919248
 20
1546.8615555478
 10
883.5086365794
 20
1550.4261517239
 10
883.4854913508
 20
1553.8060927105
 10
883.461081619
 20
1556.9684618426
 10
883.435645104
 20
1559.8824435187
 10
883.4094297705
 20
1562.5196510268
 10
883.3826910337
 20
1564.8544022155
 10
883.3556891983
 20
1566.8639504624
  0
SPLINE
  5
14A
330
1F
100
AcDbEntity
  8
0
  6
PHANTOM
 62
     8
370
     0
100
AcDbSpline
210
0.0
220
0.0
230
1.0
 70
     8
 71
     3
 72
    18
 73
    14
 74
     0
 42
0.000000001
 43
0.00000001
 40
0.0
 40
0.0
 40
0.0
 40
0.0
 40
0.0525356242146905
 40
0.1273402268074059
 40
0.201961407876196
 40
0.3011804855526226
 40
0.4006178444470845
 40
0.5001019776772847
 40
0.5993849092956023
 40
0.6994518960533818
 40
0.7996865651111068
 40
0.8999262306808573
 40
1.0
 40
1.0
 40
1.0
 40
1.0
 10
1041.621776959439
 20
1585.05314228062
 30
0.0
 10
1039.290657462561
 20
1584.595500780613
 30
0.0
 10
1033.64029563885
 20
1583.486231151129
 30
0.0
 10
1024.069048219671
 20
1581.657909277886
 30
0.0
 10
1011.933282445798
 20
1579.425240546494
 30
0.0
 10
998.1098131765866
 20
1577.046971393137
 30
0.0
 10
982.5727562332062
 20
1574.621097803388
 30
0.0
 10
966.6574119679103
 20
1572.42584742142
 30
0.0
 10
950.4130748513624
 20
1570.522989511944
 30
0.0
 10
933.8937153628825
 20
1568.979644909185
 30
0.0
 10
917.1454204088545
 20
1567.832004187897
 30
0.0
 10
900.2788508281292
 20
1567.065222883952
 30
0.0
 10
888.9936276636123
 20
1566.931004217018
 30
0.0
 10
883.3556891982901
 20
1566.863950462382
 30
0.0
  0
SPLINE
  5
14B
330
1F
100
AcDbEntity
  8
0
  6
PHANTOM
 62
     8
370
     0
100
AcDbSpline
210
0.0
220
0.0
230
1.0
 70
     8
 71
     3
 72
    24
 73
    20
 74
     0
 42
0.000000001
 43
0.00000001
 40
0.0
 40
0.0
 40
0.0
 40
0.0
 40
0.0746838627471703
 40
0.1494481719591123
 40
0.2242084763893301
 40
0.2988868750305156
 40
0.3735353177425959
 40
0.4482915168253642
 40
0.5230168336815765
 40
0.5976231133368941
 40
0.6560932704428575
 40
0.7146865697144591
 40
0.7732119803169115
 40
0.8315892710747232
 40
0.8696536735939825
 40
0.9077528883924159
 40
0.9457877213946598
 40
0.9817324916130635
 40
0.9999999999999999
 40
0.9999999999999999
 40
0.9999999999999999
 40
0.9999999999999999
 10
883.5980547224628
 20
1531.470935912173
 30
0.0
 10
889.790317244937
 20
1531.525709822324
 30
0.0
 10
902.1815123469838
 20
1531.635316642887
 30
0.0
 10
920.7250719640173
 20
1532.261826684717
 30
0.0
 10
939.1840216295851
 20
1533.199455812545
 30
0.0
 10
957.5065279237572
 20
1534.462364197998
 30
0.0
 10
975.6586831658962
 20
1536.022962080186
 30
0.0
 10
993.5925292730706
 20
1537.824074617413
 30
0.0
 10
1011.235708350757
 20
1539.805082133484
 30
0.0
 10
1027.25748990118
 20
1541.755425001798
 30
0.0
 10
1041.685088784267
 20
1543.597664023408
 30
0.0
 10
1054.54576570858
 20
1545.267913987117
 30
0.0
 10
1066.936645925567
 20
1546.86828824692
 30
0.0
 10
1077.358243837615
 20
1548.172815764273
 30
0.0
 10
1085.916960935333
 20
1549.184944222989
 30
0.0
 10
1092.78633236039
 20
1549.948424647708
 30
0.0
 10
1098.998581109342
 20
1550.582178979287
 30
0.0
 10
1103.749203930426
 20
1551.017266554386
 30
0.0
 10
1106.082019316487
 20
1551.198787788619
 30
0.0
 10
1106.868090769787
 20
1551.259953649085
 30
0.0
  0
LINE
  5
14C
330
1F
100
AcDbEntity
  8
0
  6
PHANTOM
 62
     8
370
     0
100
AcDbLine
 10
878.3805002091
 20
1566.8639504624
 30
0.0
 11
883.3556891983
 21
1566.8639504624
 31
0.0
  0
SPLINE
  5
14D
330
1F
100
AcDbEntity
  8
0
  6
PHANTOM
 62
     8
370
     0
100
AcDbSpline
210
0.0
220
0.0
230
1.0
 70
     8
 71
     3
 72
    19
 73
    15
 74
     0
 42
0.000000001
 43
0.00000001
 40
0.0
 40
0.0
 40
0.0
 40
0.0
 40
0.1576988939790843
 40
0.3149619442763302
 40
0.3643196098350777
 40
0.4137754957875743
 40
0.4633229961486959
 40
0.5104699183105964
 40
0.5500337006418184
 40
0.6261088197151128
 40
0.709147229070821
 40
0.799149683478421
 40
0.8961072648244335
 40
1.0
 40
1.0
 40
1.0
 40
1.0
 10
985.1523961038786
 20
1376.08586636309
 30
0.0
 10
979.886638352167
 20
1384.238543952311
 30
0.0
 10
969.3696761990446
 20
1400.521366994176
 30
0.0
 10
956.6330123027186
 20
1419.063366694477
 30
0.0
 10
947.7542621878872
 20
1432.170065837153
 30
0.0
 10
942.6235894874354
 20
1439.780129227947
 30
0.0
 10
937.5886336059236
 20
1447.295944473549
 30
0.0
 10
932.9100847572339
 20
1454.318595894044
 30
0.0
 10
927.3560111257875
 20
1462.736791021252
 30
0.0
 10
920.6307656222002
 20
1473.053294266899
 30
0.0
 10
912.2641439998421
 20
1486.04098268832
 30
0.0
 10
903.2598394828244
 20
1500.166478712387
 30
0.0
 10
893.6177278465861
 20
1515.426163644902
 30
0.0
 10
887.0139529378052
 20
1526.000966156234
 30
0.0
 10
883.5980547224628
 20
1531.470935912173
 30
0.0
  0
SPLINE
  5
14E
330
1F
100
AcDbEntity
  8
0
  6
PHANTOM
 62
     8
370
     0
100
AcDbSpline
210
0.0
220
0.0
230
1.0
 70
     8
 71
     3
 72
    28
 73
    24
 74
     0
 42
0.000000001
 43
0.00000001
 40
0.0
 40
0.0
 40
0.0
 40
0.0
 40
0.0253343347856246
 40
0.0736787332665878
 40
0.1152736356309336
 40
0.1559417396145057
 40
0.1986794621165194
 40
0.2750233820174824
 40
0.3578286630809441
 40
0.4475192476144186
 40
0.4847337873155718
 40
0.5231005912041692
 40
0.5497011038685984
 40
0.5687907953628627
 40
0.5927644131540726
 40
0.6217385652989009
 40
0.6760936277841308
 40
0.743088898739557
 40
0.8076678717089312
 40
0.8627176797762667
 40
0.9132682662756909
 40
0.9590947905873071
 40
1.0
 40
1.0
 40
1.0
 40
1.0
 10
1106.868090769787
 20
1335.067723066848
 30
0.0
 10
1106.492182134009
 20
1335.168041887918
 30
0.0
 10
1105.398943557093
 20
1335.459794709602
 30
0.0
 10
1103.533616055345
 20
1335.943102314498
 30
0.0
 10
1101.334658730148
 20
1336.509213958922
 30
0.0
 10
1099.133961495058
 20
1337.072509032959
 30
0.0
 10
1096.215539573579
 20
1337.812199424332
 30
0.0
 10
1092.346229579136
 20
1338.776402015437
 30
0.0
 10
1087.320169115242
 20
1339.996003156454
 30
0.0
 10
1082.881227587172
 20
1341.041464157018
 30
0.0
 10
1079.282680758051
 20
1341.870939206054
 30
0.0
 10
1077.02282866403
 20
1342.38543546096
 30
0.0
 10
1075.14065764751
 20
1342.809323718832
 30
0.0
 10
1073.567991607946
 20
1343.162047076451
 30
0.0
 10
1071.929275975023
 20
1343.525597039306
 30
0.0
 10
1069.466297259241
 20
1344.064063684368
 30
0.0
 10
1065.969014846985
 20
1344.810242326361
 30
0.0
 10
1061.565851129214
 20
1345.717478094155
 30
0.0
 10
1057.069929203127
 20
1346.611783993986
 30
0.0
 10
1052.9116095684
 20
1347.405735665021
 30
0.0
 10
1049.168100489296
 20
1348.094849660567
 30
0.0
 10
1045.742958013694
 20
1348.70544505658
 30
0.0
 10
1043.5566256464
 20
1349.077703147558
 30
0.0
 10
1042.525487682362
 20
1349.253270895522
 30
0.0
  0
SPLINE
  5
14F
330
1F
100
AcDbEntity
  8
0
  6
PHANTOM
 62
     8
370
     0
100
AcDbSpline
210
0.0
220
0.0
230
1.0
 70
     8
 71
     3
 72
    46
 73
    42
 74
     0
 42
0.000000001
 43
0.00000001
 40
0.0
 40
0.0
 40
0.0
 40
0.0
 40
0.046357822813617
 40
0.0949251518357006
 40
0.145887191953152
 40
0.1994059607397115
 40
0.2556227001728706
 40
0.2984129029801625
 40
0.3620221099297203
 40
0.4397228470962263
 40
0.5318380368888886
 40
0.5933738102596766
 40
0.6477315305813877
 40
0.6948012985339954
 40
0.7344931160560734
 40
0.7667380442305073
 40
0.7820715310214347
 40
0.7975513716351713
 40
0.8131807658873452
 40
0.8289627732346865
 40
0.8449007426982317
 40
0.8609975565982562
 40
0.8772561960273749
 40
0.9015986809828598
 40
0.9198166917960233
 40
0.931878756509958
 40
0.9355945438967173
 40
0.9370002660602313
 40
0.9374651408757103
 40
0.9376398998066886
 40
0.9377110969215947
 40
0.93774124915357
 40
0.9377543985824688
 40
0.9377600756812285
 40
0.9377625334659456
 40
0.9377636504580331
 40
0.9377641220057673
 40
0.937764490631588
 40
0.9762502482416123
 40
0.9898132839216216
 40
1.0
 40
1.0
 40
1.0
 40
1.0
 10
1042.525487682362
 20
1349.253270895522
 30
0.0
 10
1041.605366219138
 20
1349.428529399986
 30
0.0
 10
1039.721268470308
 20
1349.787399578458
 30
0.0
 10
1036.850717631609
 20
1350.589630284436
 30
0.0
 10
1033.867482072707
 20
1351.594749278129
 30
0.0
 10
1030.770543001977
 20
1352.82368239892
 30
0.0
 10
1027.86615288489
 20
1354.129998283153
 30
0.0
 10
1024.804379784646
 20
1355.641717542175
 30
0.0
 10
1021.380467181417
 20
1357.483518089219
 30
0.0
 10
1017.057997019158
 20
1359.90651833689
 30
0.0
 10
1012.782611046734
 20
1362.377309998025
 30
0.0
 10
1008.917806779723
 20
1364.59572013446
 30
0.0
 10
1005.859511301512
 20
1366.295462141849
 30
0.0
 10
1003.18795627305
 20
1367.736662197974
 30
0.0
 10
1000.912999238849
 20
1368.917974753606
 30
0.0
 10
999.2253458136463
 20
1369.749925240366
 30
0.0
 10
997.9914604098238
 20
1370.321423134856
 30
0.0
 10
997.0770105127015
 20
1370.730520900795
 30
0.0
 10
996.1479743869139
 20
1371.13123778943
 30
0.0
 10
995.2043560578649
 20
1371.523759177264
 30
0.0
 10
994.2460055109219
 20
1371.907868615658
 30
0.0
 10
993.2730705412581
 20
1372.284218730008
 30
0.0
 10
992.1242191507495
 20
1372.709911443128
 30
0.0
 10
990.9286746236648
 20
1373.144141836325
 30
0.0
 10
989.818138541632
 20
1373.549966302085
 30
0.0
 10
989.1266409816448
 20
1373.803076732729
 30
0.0
 10
988.7774748540937
 20
1373.932450284294
 30
0.0
 10
988.6641668585399
 20
1373.975131272364
 30
0.0
 10
988.622759012874
 20
1373.990992992381
 30
0.0
 10
988.6084010050565
 20
1373.996586599692
 30
0.0
 10
988.6028178826997
 20
1373.998759387392
 30
0.0
 10
988.6005132628067
 20
1373.999667317411
 30
0.0
 10
988.5995184284593
 20
1374.000052225128
 30
0.0
 10
988.5990937826318
 20
1374.000225586888
 30
0.0
 10
988.5989037883363
 20
1374.000291322695
 30
0.0
 10
988.5988254152576
 20
1374.00033550224
 30
0.0
 10
988.5987831634811
 20
1374.000343280315
 30
0.0
 10
987.8299758033796
 20
1374.277853830265
 30
0.0
 10
986.78768665406
 20
1374.770211050641
 30
0.0
 10
985.6330282101674
 20
1375.507053106584
 30
0.0
 10
985.2966675356748
 20
1375.912123876547
 30
0.0
 10
985.1523961038786
 20
1376.08586636309
 30
0.0
  0
SPLINE
  5
150
330
1F
100
AcDbEntity
  8
0
  6
PHANTOM
 62
     8
370
     0
100
AcDbSpline
210
0.0
220
0.0
230
1.0
 70
     8
 71
     3
 72
    28
 73
    24
 74
     0
 42
0.000000001
 43
0.00000001
 40
0.0
 40
0.0
 40
0.0
 40
0.0
 40
0.0253343347856246
 40
0.0736787332665878
 40
0.1152736356309336
 40
0.1559417396145057
 40
0.1986794621165194
 40
0.2750233820174824
 40
0.3578286630809441
 40
0.4475192476144186
 40
0.4847337873155718
 40
0.5231005912041692
 40
0.5497011038685984
 40
0.5687907953628627
 40
0.5927644131540726
 40
0.6217385652989009
 40
0.6760936277841308
 40
0.743088898739557
 40
0.8076678717089312
 40
0.8627176797762667
 40
0.9132682662756909
 40
0.9590947905873071
 40
1.0
 40
1.0
 40
1.0
 40
1.0
 10
654.8680986376005
 20
1335.067723066848
 30
0.0
 10
655.2440072733792
 20
1335.168041887918
 30
0.0
 10
656.3372458502947
 20
1335.459794709602
 30
0.0
 10
658.2025733520425
 20
1335.943102314498
 30
0.0
 10
660.4015306772404
 20
1336.509213958922
 30
0.0
 10
662.6022279123305
 20
1337.072509032959
 30
0.0
 10
665.5206498338093
 20
1337.812199424332
 30
0.0
 10
669.3899598282522
 20
1338.776402015437
 30
0.0
 10
674.4160202921461
 20
1339.996003156454
 30
0.0
 10
678.8549618202159
 20
1341.041464157018
 30
0.0
 10
682.4535086493368
 20
1341.870939206054
 30
0.0
 10
684.7133607433582
 20
1342.38543546096
 30
0.0
 10
686.5955317598782
 20
1342.809323718832
 30
0.0
 10
688.1681977994423
 20
1343.162047076451
 30
0.0
 10
689.8069134323653
 20
1343.525597039306
 30
0.0
 10
692.2698921481467
 20
1344.064063684368
 30
0.0
 10
695.7671745604027
 20
1344.810242326361
 30
0.0
 10
700.1703382781733
 20
1345.717478094155
 30
0.0
 10
704.6662602042607
 20
1346.611783993986
 30
0.0
 10
708.8245798389876
 20
1347.405735665021
 30
0.0
 10
712.5680889180919
 20
1348.094849660567
 30
0.0
 10
715.993231393694
 20
1348.70544505658
 30
0.0
 10
718.1795637609882
 20
1349.077703147558
 30
0.0
 10
719.2107017250257
 20
1349.253270895522
 30
0.0
  0
SPLINE
  5
151
330
1F
100
AcDbEntity
  8
0
  6
PHANTOM
 62
     8
370
     0
100
AcDbSpline
210
0.0
220
0.0
230
1.0
 70
     8
 71
     3
 72
    19
 73
    15
 74
     0
 42
0.000000001
 43
0.00000001
 40
0.0
 40
0.0
 40
0.0
 40
0.0
 40
0.1576988939790843
 40
0.3149619442763302
 40
0.3643196098350777
 40
0.4137754957875743
 40
0.4633229961486959
 40
0.5104699183105964
 40
0.5500337006418184
 40
0.6261088197151128
 40
0.709147229070821
 40
0.799149683478421
 40
0.8961072648244335
 40
1.0
 40
1.0
 40
1.0
 40
1.0
 10
776.5837933035093
 20
1376.08586636309
 30
0.0
 10
781.849551055221
 20
1384.238543952311
 30
0.0
 10
792.3665132083432
 20
1400.521366994176
 30
0.0
 10
805.1031771046694
 20
1419.063366694477
 30
0.0
 10
813.9819272195008
 20
1432.170065837153
 30
0.0
 10
819.1125999199526
 20
1439.780129227947
 30
0.0
 10
824.1475558014644
 20
1447.295944473549
 30
0.0
 10
828.8261046501541
 20
1454.318595894044
 30
0.0
 10
834.3801782816005
 20
1462.736791021252
 30
0.0
 10
841.1054237851877
 20
1473.053294266899
 30
0.0
 10
849.4720454075458
 20
1486.04098268832
 30
0.0
 10
858.4763499245636
 20
1500.166478712387
 30
0.0
 10
868.1184615608018
 20
1515.426163644902
 30
0.0
 10
874.7222364695826
 20
1526.000966156234
 30
0.0
 10
878.138134684925
 20
1531.470935912173
 30
0.0
  0
SPLINE
  5
152
330
1F
100
AcDbEntity
  8
0
  6
PHANTOM
 62
     8
370
     0
100
AcDbSpline
210
0.0
220
0.0
230
1.0
 70
     8
 71
     3
 72
    46
 73
    42
 74
     0
 42
0.000000001
 43
0.00000001
 40
0.0
 40
0.0
 40
0.0
 40
0.0
 40
0.046357822813617
 40
0.0949251518357006
 40
0.145887191953152
 40
0.1994059607397115
 40
0.2556227001728706
 40
0.2984129029801625
 40
0.3620221099297203
 40
0.4397228470962263
 40
0.5318380368888886
 40
0.5933738102596766
 40
0.6477315305813877
 40
0.6948012985339954
 40
0.7344931160560734
 40
0.7667380442305073
 40
0.7820715310214347
 40
0.7975513716351713
 40
0.8131807658873452
 40
0.8289627732346865
 40
0.8449007426982317
 40
0.8609975565982562
 40
0.8772561960273749
 40
0.9015986809828598
 40
0.9198166917960233
 40
0.931878756509958
 40
0.9355945438967173
 40
0.9370002660602313
 40
0.9374651408757103
 40
0.9376398998066886
 40
0.9377110969215947
 40
0.93774124915357
 40
0.9377543985824688
 40
0.9377600756812285
 40
0.9377625334659456
 40
0.9377636504580331
 40
0.9377641220057673
 40
0.937764490631588
 40
0.9762502482416123
 40
0.9898132839216216
 40
1.0
 40
1.0
 40
1.0
 40
1.0
 10
719.2107017250257
 20
1349.253270895522
 30
0.0
 10
720.1308231882495
 20
1349.428529399986
 30
0.0
 10
722.0149209370799
 20
1349.787399578458
 30
0.0
 10
724.8854717757794
 20
1350.589630284436
 30
0.0
 10
727.8687073346808
 20
1351.594749278129
 30
0.0
 10
730.9656464054109
 20
1352.82368239892
 30
0.0
 10
733.8700365224976
 20
1354.129998283153
 30
0.0
 10
736.931809622742
 20
1355.641717542175
 30
0.0
 10
740.3557222259709
 20
1357.483518089219
 30
0.0
 10
744.6781923882297
 20
1359.90651833689
 30
0.0
 10
748.953578360654
 20
1362.377309998025
 30
0.0
 10
752.8183826276653
 20
1364.59572013446
 30
0.0
 10
755.876678105876
 20
1366.295462141849
 30
0.0
 10
758.5482331343386
 20
1367.736662197974
 30
0.0
 10
760.8231901685396
 20
1368.917974753606
 30
0.0
 10
762.5108435937417
 20
1369.749925240366
 30
0.0
 10
763.744728997564
 20
1370.321423134856
 30
0.0
 10
764.6591788946865
 20
1370.730520900795
 30
0.0
 10
765.5882150204741
 20
1371.13123778943
 30
0.0
 10
766.5318333495231
 20
1371.523759177264
 30
0.0
 10
767.4901838964661
 20
1371.907868615658
 30
0.0
 10
768.4631188661299
 20
1372.284218730008
 30
0.0
 10
769.6119702566385
 20
1372.709911443128
 30
0.0
 10
770.8075147837231
 20
1373.144141836325
 30
0.0
 10
771.918050865756
 20
1373.549966302085
 30
0.0
 10
772.6095484257432
 20
1373.803076732729
 30
0.0
 10
772.9587145532943
 20
1373.932450284294
 30
0.0
 10
773.0720225488479
 20
1373.975131272364
 30
0.0
 10
773.113430394514
 20
1373.990992992381
 30
0.0
 10
773.1277884023315
 20
1373.996586599692
 30
0.0
 10
773.1333715246883
 20
1373.998759387392
 30
0.0
 10
773.1356761445813
 20
1373.999667317411
 30
0.0
 10
773.1366709789287
 20
1374.000052225128
 30
0.0
 10
773.1370956247562
 20
1374.000225586888
 30
0.0
 10
773.1372856190516
 20
1374.000291322695
 30
0.0
 10
773.1373639921304
 20
1374.00033550224
 30
0.0
 10
773.1374062439069
 20
1374.000343280315
 30
0.0
 10
773.9062136040084
 20
1374.277853830265
 30
0.0
 10
774.948502753328
 20
1374.770211050641
 30
0.0
 10
776.1031611972205
 20
1375.507053106584
 30
0.0
 10
776.4395218717132
 20
1375.912123876547
 30
0.0
 10
776.5837933035093
 20
1376.08586636309
 30
0.0
  0
SPLINE
  5
153
330
1F
100
AcDbEntity
  8
0
  6
PHANTOM
 62
     8
370
     0
100
AcDbSpline
210
0.0
220
0.0
230
1.0
 70
     8
 71
     3
 72
    13
 73
     9
 74
     0
 42
0.000000001
 43
0.00000001
 40
0.0
 40
0.0
 40
0.0
 40
0.0
 40
0.1677702190207485
 40
0.3413694975132327
 40
0.5190839196289735
 40
0.6989300046297824
 40
0.8787760417028625
 40
0.9999999999999999
 40
0.9999999999999999
 40
0.9999999999999999
 40
0.9999999999999999
 10
719.2107017250257
 20
1349.253270895522
 30
0.0
 10
719.6585731911841
 20
1346.885273741247
 30
0.0
 10
720.5698771058203
 20
1342.06700501998
 30
0.0
 10
722.5312748057489
 20
1334.897401593129
 30
0.0
 10
724.9293846083664
 20
1327.88188279126
 30
0.0
 10
727.7563850357056
 20
1321.323855110217
 30
0.0
 10
730.5444151809829
 20
1315.941583010964
 30
0.0
 10
732.451731543154
 20
1313.169353761866
 30
0.0
 10
733.2197005958753
 20
1312.053132922691
 30
0.0
  0
SPLINE
  5
154
330
1F
100
AcDbEntity
  8
0
  6
PHANTOM
 62
     8
370
     0
100
AcDbSpline
210
0.0
220
0.0
230
1.0
 70
     8
 71
     3
 72
    13
 73
     9
 74
     0
 42
0.000000001
 43
0.00000001
 40
0.0
 40
0.0
 40
0.0
 40
0.0
 40
0.1677713307791404
 40
0.3413714758801409
 40
0.5190867960303923
 40
0.6989339638376242
 40
0.8787810360831855
 40
1.0
 40
1.0
 40
1.0
 40
1.0
 10
1042.525487682362
 20
1349.253270895522
 30
0.0
 10
1042.077720297721
 20
1346.885249745936
 30
0.0
 10
1041.166628919735
 20
1342.06693620574
 30
0.0
 10
1039.205184894413
 20
1334.897344134827
 30
0.0
 10
1036.807104856644
 20
1327.881824935522
 30
0.0
 10
1033.980207765303
 20
1321.323771052428
 30
0.0
 10
1031.192457596776
 20
1315.941512141407
 30
0.0
 10
1029.285265470264
 20
1313.169311096483
 30
0.0
 10
1028.517367980023
 20
1312.053132922691
 30
0.0
  0
SPLINE
  5
155
330
1F
100
AcDbEntity
  8
0
  6
PHANTOM
 62
     8
370
     0
100
AcDbSpline
210
0.0
220
0.0
230
1.0
 70
     8
 71
     3
 72
    10
 73
     6
 74
     0
 42
0.000000001
 43
0.00000001
 40
0.0
 40
0.0
 40
0.0
 40
0.0
 40
0.3330874131900394
 40
0.6669127609125198
 40
1.0
 40
1.0
 40
1.0
 40
1.0
 10
776.5837933035093
 20
1376.08586636309
 30
0.0
 10
778.6168913035505
 20
1374.998638541127
 30
0.0
 10
782.6875915063214
 20
1372.821774211304
 30
0.0
 10
788.9464655587464
 20
1369.580735986217
 30
0.0
 10
793.1503883871053
 20
1367.472828943526
 30
0.0
 10
795.2500234456259
 20
1366.420041890186
 30
0.0
  0
SPLINE
  5
156
330
1F
100
AcDbEntity
  8
0
  6
PHANTOM
 62
     8
370
     0
100
AcDbSpline
210
0.0
220
0.0
230
1.0
 70
     8
 71
     3
 72
    33
 73
    29
 74
     0
 42
0.000000001
 43
0.00000001
 40
0.0
 40
0.0
 40
0.0
 40
0.0
 40
0.1114504748658542
 40
0.2194209290033474
 40
0.2496545965166465
 40
0.2796121766944065
 40
0.3092955260731479
 40
0.3387068603512552
 40
0.3678483915778497
 40
0.3967220156895431
 40
0.4253300797457797
 40
0.4649938552655101
 40
0.5022308696141278
 40
0.5370530964382518
 40
0.5694752845301168
 40
0.5995152851150551
 40
0.6271959126407272
 40
0.6764826457407651
 40
0.7189725615093753
 40
0.7553673783181186
 40
0.7663395686311142
 40
0.7768105523026698
 40
0.7868435163712422
 40
0.825757233533209
 40
0.8749090089494418
 40
0.9172520136877601
 40
0.9638439936456683
 40
1.0
 40
1.0
 40
1.0
 40
1.0
 10
795.2500234456259
 20
1366.420041890186
 30
0.0
 10
795.1386039110514
 20
1363.518558022887
 30
0.0
 10
794.9192438965258
 20
1357.806188592276
 30
0.0
 10
794.4536300249353
 20
1351.511188040412
 30
0.0
 10
794.0677737757992
 20
1347.378177057017
 30
0.0
 10
793.8419249896305
 20
1345.196682995285
 30
0.0
 10
793.5989741997207
 20
1343.063959513519
 30
0.0
 10
793.3387470851425
 20
1340.98101249939
 30
0.0
 10
793.06133014191
 20
1338.94868666435
 30
0.0
 10
792.7665572642093
 20
1336.967738211903
 30
0.0
 10
792.4138941122328
 20
1334.784357316504
 30
0.0
 10
791.9986060418343
 20
1332.464818463442
 30
0.0
 10
791.5097832646248
 20
1330.07582439516
 30
0.0
 10
791.001210906454
 20
1327.904696667654
 30
0.0
 10
790.4730028674317
 20
1325.941927206853
 30
0.0
 10
789.924381201252
 20
1324.177851416634
 30
0.0
 10
789.1950906951861
 20
1322.148657271189
 30
0.0
 10
788.2112956120789
 20
1319.992094843402
 30
0.0
 10
786.8146427405301
 20
1317.865662486972
 30
0.0
 10
785.5279023976115
 20
1316.534598688031
 30
0.0
 10
784.5328542726287
 20
1315.78229644917
 30
0.0
 10
783.9460334181555
 20
1315.40350833558
 30
0.0
 10
782.7511874415223
 20
1314.754177963668
 30
0.0
 10
780.4386011833163
 20
1313.980899350963
 30
0.0
 10
777.1357966948917
 20
1313.379539165216
 30
0.0
 10
773.5883532718478
 20
1312.88323166448
 30
0.0
 10
770.345436878645
 20
1312.5163075465
 30
0.0
 10
768.2332639721981
 20
1312.193973816811
 30
0.0
 10
767.3103685589033
 20
1312.053132922691
 30
0.0
  0
SPLINE
  5
157
330
1F
100
AcDbEntity
  8
0
  6
PHANTOM
 62
     8
370
     0
100
AcDbSpline
210
0.0
220
0.0
230
1.0
 70
     8
 71
     3
 72
    33
 73
    29
 74
     0
 42
0.000000001
 43
0.00000001
 40
0.0
 40
0.0
 40
0.0
 40
0.0
 40
0.1114504748658542
 40
0.2194209290033474
 40
0.2496545965166465
 40
0.2796121766944065
 40
0.3092955260731479
 40
0.3387068603512552
 40
0.3678483915778497
 40
0.3967220156895431
 40
0.4253300797457797
 40
0.4649938552655101
 40
0.5022308696141278
 40
0.5370530964382518
 40
0.5694752845301168
 40
0.5995152851150551
 40
0.6271959126407272
 40
0.6764826457407651
 40
0.7189725615093753
 40
0.7553673783181186
 40
0.7663395686311142
 40
0.7768105523026698
 40
0.7868435163712422
 40
0.825757233533209
 40
0.8749090089494418
 40
0.9172520136877601
 40
0.9638439936456683
 40
1.0
 40
1.0
 40
1.0
 40
1.0
 10
966.486165961762
 20
1366.420041890186
 30
0.0
 10
966.5975854963366
 20
1363.518558022887
 30
0.0
 10
966.8169455108622
 20
1357.806188592276
 30
0.0
 10
967.2825593824526
 20
1351.511188040412
 30
0.0
 10
967.6684156315888
 20
1347.378177057017
 30
0.0
 10
967.8942644177575
 20
1345.196682995285
 30
0.0
 10
968.1372152076673
 20
1343.063959513519
 30
0.0
 10
968.3974423222454
 20
1340.98101249939
 30
0.0
 10
968.674859265478
 20
1338.94868666435
 30
0.0
 10
968.9696321431786
 20
1336.967738211903
 30
0.0
 10
969.3222952951551
 20
1334.784357316504
 30
0.0
 10
969.7375833655537
 20
1332.464818463442
 30
0.0
 10
970.2264061427632
 20
1330.07582439516
 30
0.0
 10
970.734978500934
 20
1327.904696667654
 30
0.0
 10
971.2631865399563
 20
1325.941927206853
 30
0.0
 10
971.811808206136
 20
1324.177851416634
 30
0.0
 10
972.5410987122018
 20
1322.148657271189
 30
0.0
 10
973.5248937953091
 20
1319.992094843402
 30
0.0
 10
974.9215466668579
 20
1317.865662486972
 30
0.0
 10
976.2082870097764
 20
1316.534598688031
 30
0.0
 10
977.2033351347593
 20
1315.78229644917
 30
0.0
 10
977.7901559892325
 20
1315.40350833558
 30
0.0
 10
978.9850019658655
 20
1314.754177963668
 30
0.0
 10
981.2975882240717
 20
1313.980899350963
 30
0.0
 10
984.6003927124963
 20
1313.379539165216
 30
0.0
 10
988.1478361355402
 20
1312.88323166448
 30
0.0
 10
991.3907525287428
 20
1312.5163075465
 30
0.0
 10
993.5029254351899
 20
1312.193973816811
 30
0.0
 10
994.4258208484846
 20
1312.053132922691
 30
0.0
  0
SPLINE
  5
158
330
1F
100
AcDbEntity
  8
0
  6
PHANTOM
 62
     8
370
     0
100
AcDbSpline
210
0.0
220
0.0
230
1.0
 70
     8
 71
     3
 72
    11
 73
     7
 74
     0
 42
0.000000001
 43
0.00000001
 40
0.0
 40
0.0
 40
0.0
 40
0.0
 40
0.2496888155175247
 40
0.5000000695025897
 40
0.7503114104937968
 40
0.9999999999999999
 40
0.9999999999999999
 40
0.9999999999999999
 40
0.9999999999999999
 10
985.1523961038786
 20
1376.08586636309
 30
0.0
 10
983.6312799590696
 20
1375.270686438342
 30
0.0
 10
980.5852557446907
 20
1373.638294462008
 30
0.0
 10
975.9193769878739
 20
1371.20154807655
 30
0.0
 10
971.2132898322808
 20
1368.7853965666
 30
0.0
 10
968.0605650090426
 20
1367.207838497813
 30
0.0
 10
966.486165961762
 20
1366.420041890186
 30
0.0
  0
LINE
  5
159
330
1F
100
AcDbEntity
  8
0
  6
PHANTOM
 62
     8
370
     0
100
AcDbLine
 10
795.2500234456
 20
1366.4200418902
 30
0.0
 11
966.4861659618
 21
1366.4200418902
 31
0.0
  0
LINE
  5
15A
330
1F
100
AcDbEntity
  8
0
  6
PHANTOM
 62
     8
370
     0
100
AcDbLine
 10
883.3556891983
 20
1566.8639504624
 30
0.0
 11
883.3556891983
 21
1531.3333870185
 31
0.0
  0
LINE
  5
15B
330
1F
100
AcDbEntity
  8
0
  6
PHANTOM
 62
     8
370
     0
100
AcDbLine
 10
883.3556891983
 20
1531.3333870185
 30
0.0
 11
878.3805002091
 21
1531.3333870185
 31
0.0
  0
LINE
  5
15C
330
1F
100
AcDbEntity
  8
0
  6
PHANTOM
 62
     8
370
     0
100
AcDbLine
 10
878.3805002091
 20
1566.8639504624
 30
0.0
 11
878.3805002091
 21
1531.3333870185
 31
0.0
  0
SPLINE
  5
15D
330
1F
100
AcDbEntity
  8
0
  6
PHANTOM
 62
     8
370
     0
100
AcDbSpline
210
0.0
220
0.0
230
1.0
 70
     8
 71
     3
 72
     9
 73
     5
 74
     0
 42
0.000000001
 43
0.00000001
 40
0.0
 40
0.0
 40
0.0
 40
0.0
 40
0.000019644627889
 40
1.0
 40
1.0
 40
1.0
 40
1.0
 10
847.1823285432058
 20
1473.369704214227
 30
0.0
 10
847.1823297849617
 20
1473.369724082442
 30
0.0
 10
847.2455407460692
 20
1474.38110570992
 30
0.0
 10
847.368034343649
 20
1475.386266735174
 30
0.0
 10
847.4905255348879
 20
1476.391408014413
 30
0.0
  0
SPLINE
  5
15E
330
1F
100
AcDbEntity
  8
0
  6
PHANTOM
 62
     8
370
     0
100
AcDbSpline
210
0.0
220
0.0
230
1.0
 70
     8
 71
     3
 72
    18
 73
    14
 74
     0
 42
0.000000001
 43
0.00000001
 40
0.0
 40
0.0
 40
0.0
 40
0.0
 40
0.0872336172481857
 40
0.1692111729286999
 40
0.2477561415860713
 40
0.3343082381374902
 40
0.4295060095933234
 40
0.5333525265092524
 40
0.6348128463369109
 40
0.7260897557339727
 40
0.8173799316448512
 40
0.9086833100631266
 40
1.0
 40
1.0
 40
1.0
 40
1.0
 10
847.187823346396
 20
1473.341347071644
 30
0.0
 10
845.5890816594697
 20
1470.267041846382
 30
0.0
 10
842.487926799811
 20
1464.303666607368
 30
0.0
 10
838.0136375254679
 20
1455.542050054539
 30
0.0
 10
833.613194247385
 20
1446.776797124931
 30
0.0
 10
829.0515017808682
 20
1437.510065336548
 30
0.0
 10
824.1082804114264
 20
1427.318191813139
 30
0.0
 10
818.9614053341857
 20
1416.575465787254
 30
0.0
 10
813.9309299767164
 20
1405.957836460408
 30
0.0
 10
809.1239633410032
 20
1395.792770385762
 30
0.0
 10
804.4937326674788
 20
1385.996996869586
 30
0.0
 10
799.8684807933063
 20
1376.204906751838
 30
0.0
 10
796.7895840370352
 20
1369.681822004022
 30
0.0
 10
795.2500234456259
 20
1366.420041890186
 30
0.0
  0
SPLINE
  5
15F
330
1F
100
AcDbEntity
  8
0
  6
PHANTOM
 62
     8
370
     0
100
AcDbSpline
210
0.0
220
0.0
230
1.0
 70
     8
 71
     3
 72
     9
 73
     5
 74
     0
 42
0.000000001
 43
0.00000001
 40
0.0
 40
0.0
 40
0.0
 40
0.0
 40
0.5163959436139282
 40
1.0
 40
1.0
 40
1.0
 40
1.0
 10
878.3805002090978
 20
1531.333387018483
 30
0.0
 10
875.3704973010551
 20
1525.850257611114
 30
0.0
 10
869.5416310110187
 20
1515.232185422173
 30
0.0
 10
863.7931452579313
 20
1504.573447139523
 30
0.0
 10
861.0131542296606
 20
1499.418838070076
 30
0.0
  0
SPLINE
  5
160
330
1F
100
AcDbEntity
  8
0
  6
PHANTOM
 62
     8
370
     0
100
AcDbSpline
210
0.0
220
0.0
230
1.0
 70
     8
 71
     3
 72
     9
 73
     5
 74
     0
 42
0.000000001
 43
0.00000001
 40
0.0
 40
0.0
 40
0.0
 40
0.0
 40
0.9999796603003527
 40
1.0
 40
1.0
 40
1.0
 40
1.0
 10
858.6900110454756
 20
1497.473085419577
 30
0.0
 10
859.4425279443021
 20
1498.13410471983
 30
0.0
 10
860.1950601494077
 20
1498.795137465291
 30
0.0
 10
860.9887262594045
 20
1499.405649300663
 30
0.0
 10
860.9887424023348
 20
1499.405661718291
 30
0.0
  0
SPLINE
  5
161
330
1F
100
AcDbEntity
  8
0
  6
PHANTOM
 62
     8
370
     0
100
AcDbSpline
210
0.0
220
0.0
230
1.0
 70
     8
 71
     3
 72
    13
 73
     9
 74
     0
 42
0.000000001
 43
0.00000001
 40
0.0
 40
0.0
 40
0.0
 40
0.0
 40
0.0811302609554177
 40
0.2896357550531732
 40
0.4981703603542467
 40
0.7220443818325808
 40
0.9459020055808569
 40
1.0
 40
1.0
 40
1.0
 40
1.0
 10
847.4901865334707
 20
1476.39145562828
 30
0.0
 10
847.6087678597461
 20
1477.036943449062
 30
0.0
 10
848.0321042519442
 20
1479.341340725101
 30
0.0
 10
849.2015199327017
 20
1483.214346937653
 30
0.0
 10
851.3198941720465
 20
1487.96167987008
 30
0.0
 10
854.1524686332757
 20
1492.470138650698
 30
0.0
 10
856.7618308853832
 20
1495.602407610214
 30
0.0
 10
858.3763921881325
 20
1497.167741826026
 30
0.0
 10
858.6906313063103
 20
1497.472399966162
 30
0.0
  0
SPLINE
  5
162
330
1F
100
AcDbEntity
  8
0
  6
PHANTOM
 62
     8
370
     0
100
AcDbSpline
210
0.0
220
0.0
230
1.0
 70
     8
 71
     3
 72
    18
 73
    14
 74
     0
 42
0.000000001
 43
0.00000001
 40
0.0
 40
0.0
 40
0.0
 40
0.0
 40
0.0872335986619068
 40
0.1692111585039655
 40
0.247756145134231
 40
0.3343082323020297
 40
0.4295060085905241
 40
0.5333525027005879
 40
0.6348128543566139
 40
0.7260897683872967
 40
0.8173799223742464
 40
0.9086833054274862
 40
1.0
 40
1.0
 40
1.0
 40
1.0
 10
914.5483697862821
 20
1473.341342182201
 30
0.0
 10
916.147110131756
 20
1470.267037291347
 30
0.0
 10
919.2482627857136
 20
1464.303661938783
 30
0.0
 10
923.7225509066493
 20
1455.542045226196
 30
0.0
 10
928.1230005227262
 20
1446.776795439183
 30
0.0
 10
932.684686272097
 20
1437.510060338314
 30
0.0
 10
937.6279090390664
 20
1427.318189337301
 30
0.0
 10
942.774783264884
 20
1416.575463018875
 30
0.0
 10
947.8052676520515
 20
1405.957837990141
 30
0.0
 10
952.6122348056984
 20
1395.792772146531
 30
0.0
 10
957.242455096977
 20
1385.996994943702
 30
0.0
 10
961.8677091370508
 20
1376.204906996006
 30
0.0
 10
964.9466055446844
 20
1369.681822085415
 30
0.0
 10
966.486165961762
 20
1366.420041890186
 30
0.0
  0
SPLINE
  5
163
330
1F
100
AcDbEntity
  8
0
  6
PHANTOM
 62
     8
370
     0
100
AcDbSpline
210
0.0
220
0.0
230
1.0
 70
     8
 71
     3
 72
     9
 73
     5
 74
     0
 42
0.000000001
 43
0.00000001
 40
0.0
 40
0.0
 40
0.0
 40
0.0
 40
0.9999794583879407
 40
1.0
 40
1.0
 40
1.0
 40
1.0
 10
914.263824662705
 20
1476.259910563775
 30
0.0
 10
914.378615590158
 20
1475.298436169155
 30
0.0
 10
914.4934088756501
 20
1474.336942023896
 30
0.0
 10
914.5538596224263
 20
1473.369724082442
 30
0.0
 10
914.5538608641821
 20
1473.369704214227
 30
0.0
  0
SPLINE
  5
164
330
1F
100
AcDbEntity
  8
0
  6
PHANTOM
 62
     8
370
     0
100
AcDbSpline
210
0.0
220
0.0
230
1.0
 70
     8
 71
     3
 72
    13
 73
     9
 74
     0
 42
0.000000001
 43
0.00000001
 40
0.0
 40
0.0
 40
0.0
 40
0.0
 40
0.0992013004418192
 40
0.2990473866137836
 40
0.4989060884820443
 40
0.7001622746086941
 40
0.9013955988414785
 40
1.0
 40
1.0
 40
1.0
 40
1.0
 10
903.1266520829397
 20
1497.399931893986
 30
0.0
 10
903.6953833844793
 20
1496.832139789043
 30
0.0
 10
905.4098529393478
 20
1495.120501490284
 30
0.0
 10
907.9305022479706
 20
1491.945083554588
 30
0.0
 10
910.4879276224943
 20
1487.791027738565
 30
0.0
 10
912.4834787175952
 20
1483.326841226733
 30
0.0
 10
913.6876410654347
 20
1479.435252747742
 30
0.0
 10
914.1214523829037
 20
1477.045757996117
 30
0.0
 10
914.2641152353483
 20
1476.259950610645
 30
0.0
  0
SPLINE
  5
165
330
1F
100
AcDbEntity
  8
0
  6
PHANTOM
 62
     8
370
     0
100
AcDbSpline
210
0.0
220
0.0
230
1.0
 70
     8
 71
     3
 72
     9
 73
     5
 74
     0
 42
0.000000001
 43
0.00000001
 40
0.0
 40
0.0
 40
0.0
 40
0.0
 40
0.0000187904353479
 40
1.0
 40
1.0
 40
1.0
 40
1.0
 10
900.7474488676983
 20
1499.405657993
 30
0.0
 10
900.747464389747
 20
1499.405646196255
 30
0.0
 10
901.5735255448951
 20
1498.777840336379
 30
0.0
 10
902.3501436078644
 20
1498.088931796801
 30
0.0
 10
903.1267470778423
 20
1497.400036202114
 30
0.0
  0
SPLINE
  5
166
330
1F
100
AcDbEntity
  8
0
  6
PHANTOM
 62
     8
370
     0
100
AcDbSpline
210
0.0
220
0.0
230
1.0
 70
     8
 71
     3
 72
     9
 73
     5
 74
     0
 42
0.000000001
 43
0.00000001
 40
0.0
 40
0.0
 40
0.0
 40
0.0
 40
0.5163959668920977
 40
1.0
 40
1.0
 40
1.0
 40
1.0
 10
883.3556891982901
 20
1531.333387018483
 30
0.0
 10
886.36569203505
 20
1525.850257572485
 30
0.0
 10
892.1945579242928
 20
1515.232185787381
 30
0.0
 10
897.9430440857714
 20
1504.573448346817
 30
0.0
 10
900.7230351777273
 20
1499.418839932721
 30
0.0
  0
SPLINE
  5
167
330
1F
100
AcDbEntity
  8
0
  6
PHANTOM
 62
     8
370
     0
100
AcDbSpline
210
0.0
220
0.0
230
1.0
 70
     8
 71
     3
 72
    27
 73
    23
 74
     0
 42
0.000000001
 43
0.00000001
 40
0.0
 40
0.0
 40
0.0
 40
0.0
 40
0.0389478682216404
 40
0.0778958685637875
 40
0.1304690688635506
 40
0.1830433146364779
 40
0.2357410084078678
 40
0.2884397557949935
 40
0.3412396539133186
 40
0.3940402464600014
 40
0.4470187089951269
 40
0.4999973718106359
 40
0.5527714901433983
 40
0.6055453570488945
 40
0.6582811017813237
 40
0.7110161131425463
 40
0.7637299832872338
 40
0.8164428418244725
 40
0.869122916366771
 40
0.9218020067091843
 40
0.9609010674402393
 40
1.0
 40
1.0
 40
1.0
 40
1.0
 10
914.5588564784723
 20
1473.321252157282
 30
0.0
 10
914.5483042355331
 20
1471.925347186632
 30
0.0
 10
914.527199713859
 20
1469.133532510086
 30
0.0
 10
913.7575983626937
 20
1464.509995675214
 30
0.0
 10
912.1975022257091
 20
1459.572302467298
 30
0.0
 10
909.6036862643192
 20
1454.522616108224
 30
0.0
 10
906.1827749635365
 20
1449.988006434964
 30
0.0
 10
902.0545805410869
 20
1446.071756401535
 30
0.0
 10
897.3128220734155
 20
1442.916528898551
 30
0.0
 10
892.1069181896839
 20
1440.577078674324
 30
0.0
 10
886.5700190347611
 20
1439.159319034039
 30
0.0
 10
880.8756797903224
 20
1438.669263541771
 30
0.0
 10
875.1887343075971
 20
1439.156636949475
 30
0.0
 10
869.6671920817334
 20
1440.564749209467
 30
0.0
 10
864.4689834503556
 20
1442.891835526274
 30
0.0
 10
859.7255436266206
 20
1446.036980950365
 30
0.0
 10
855.5915196377144
 20
1449.945321246218
 30
0.0
 10
852.1600240383092
 20
1454.478083610365
 30
0.0
 10
849.5549564575316
 20
1459.531304633679
 30
0.0
 10
847.9852501184907
 20
1464.479701351153
 30
0.0
 10
847.2097189690311
 20
1469.117253814518
 30
0.0
 10
847.1881282638246
 20
1471.919920907609
 30
0.0
 10
847.1773329289156
 20
1473.321252157282
 30
0.0
  0
SPLINE
  5
168
330
1F
100
AcDbEntity
  8
0
  6
PHANTOM
 62
     8
370
     0
100
AcDbSpline
210
0.0
220
0.0
230
1.0
 70
     8
 71
     3
 72
    27
 73
    23
 74
     0
 42
0.000000001
 43
0.00000001
 40
0.0
 40
0.0
 40
0.0
 40
0.0
 40
0.0389382895137476
 40
0.0778766886297986
 40
0.130439584485144
 40
0.1830029720590375
 40
0.2357210823658671
 40
0.2884394429527044
 40
0.3412817770785614
 40
0.3941241558696628
 40
0.4470634160334002
 40
0.5000026506821288
 40
0.5531471234418435
 40
0.6062917003585649
 40
0.6591984612125827
 40
0.7121052545256479
 40
0.764807837368161
 40
0.8175101333971917
 40
0.8699674871908658
 40
0.9224242974610934
 40
0.9612122080931875
 40
1.0
 40
1.0
 40
1.0
 40
1.0
 10
849.5681869895654
 20
1473.222763398033
 30
0.0
 10
849.5713569526569
 20
1471.919936513654
 30
0.0
 10
849.5776968877622
 20
1469.314279077738
 30
0.0
 10
850.2729403658429
 20
1464.995408119779
 30
0.0
 10
851.7036045077896
 20
1460.379132327869
 30
0.0
 10
854.0988347842341
 20
1455.651919999831
 30
0.0
 10
857.2704518407672
 20
1451.401016347005
 30
0.0
 10
861.1087032035772
 20
1447.724347457107
 30
0.0
 10
865.5269214546678
 20
1444.759033336036
 30
0.0
 10
870.3824376014206
 20
1442.559667644219
 30
0.0
 10
875.5487842722058
 20
1441.227305958592
 30
0.0
 10
880.8752006169473
 20
1440.765476479303
 30
0.0
 10
886.2085454886267
 20
1441.229849970987
 30
0.0
 10
891.3892234194058
 20
1442.571336242084
 30
0.0
 10
896.2518362942076
 20
1444.782342566602
 30
0.0
 10
900.668338238078
 20
1447.757103575108
 30
0.0
 10
904.50103171578
 20
1451.441100190953
 30
0.0
 10
907.6627175180981
 20
1455.693621917047
 30
0.0
 10
910.0474741922417
 20
1460.417417461307
 30
0.0
 10
911.4692719633491
 20
1465.023637530782
 30
0.0
 10
912.1590890845652
 20
1469.329421421384
 30
0.0
 10
912.1650313097681
 20
1471.924984063271
 30
0.0
 10
912.1680024178224
 20
1473.222763398033
 30
0.0
  0
SPLINE
  5
169
330
1F
100
AcDbEntity
  8
0
  6
PHANTOM
 62
     8
370
     0
100
AcDbSpline
210
0.0
220
0.0
230
1.0
 70
     8
 71
     3
 72
     9
 73
     5
 74
     0
 42
0.000000001
 43
0.00000001
 40
0.0
 40
0.0
 40
0.0
 40
0.0
 40
0.4999699777864022
 40
1.0
 40
1.0
 40
1.0
 40
1.0
 10
912.1680024178224
 20
1473.222752687823
 30
0.0
 10
912.5465874998938
 20
1473.24980752398
 30
0.0
 10
913.3038031306153
 20
1473.303920445473
 30
0.0
 10
914.1371582735492
 20
1473.347810027023
 30
0.0
 10
914.5538608641821
 20
1473.36975613546
 30
0.0
  0
SPLINE
  5
16A
330
1F
100
AcDbEntity
  8
0
  6
PHANTOM
 62
     8
370
     0
100
AcDbSpline
210
0.0
220
0.0
230
1.0
 70
     8
 71
     3
 72
     9
 73
     5
 74
     0
 42
0.000000001
 43
0.00000001
 40
0.0
 40
0.0
 40
0.0
 40
0.0
 40
0.4999987997406007
 40
0.9999999999999999
 40
0.9999999999999999
 40
0.9999999999999999
 40
0.9999999999999999
 10
849.5681869895654
 20
1473.222763398033
 30
0.0
 10
849.1887954661756
 20
1473.242188589933
 30
0.0
 10
848.4300105979187
 20
1473.281039066993
 30
0.0
 10
847.5948928201553
 20
1473.307847772401
 30
0.0
 10
847.1773329289156
 20
1473.321252157282
 30
0.0
  0
SPLINE
  5
16B
330
1F
100
AcDbEntity
  8
0
  6
PHANTOM
 62
     8
370
     0
100
AcDbSpline
210
0.0
220
0.0
230
1.0
 70
     8
 71
     3
 72
     9
 73
     5
 74
     0
 42
0.000000001
 43
0.00000001
 40
0.0
 40
0.0
 40
0.0
 40
0.0
 40
0.0001648578020298
 40
1.0
 40
1.0
 40
1.0
 40
1.0
 10
912.1659833104807
 20
1473.2226392993
 30
0.0
 10
912.1659783439204
 20
1473.222793666048
 30
0.0
 10
912.1358520157255
 20
1474.15915667919
 30
0.0
 10
912.0512535863282
 20
1475.092041957081
 30
0.0
 10
911.9666691036421
 20
1476.024773441557
 30
0.0
  0
LINE
  5
16C
330
1F
100
AcDbEntity
  8
0
  6
PHANTOM
 62
     8
370
     0
100
AcDbLine
 10
849.7727613063
 20
1476.0542742483
 30
0.0
 11
849.5702060969
 21
1473.2226395321
 31
0.0
  0
LWPOLYLINE
  5
16D
330
1F
100
AcDbEntity
  8
0
  6
PHANTOM
 62
     8
370
     0
100
AcDbPolyline
 90
        3
 70
   128
 43
0.0
 10
849.7718430222
 20
1476.0544714558
 10
853.6095327796
 20
1475.4840259015
 10
855.9477279992
 20
1475.136469588
  0
SPLINE
  5
16E
330
1F
100
AcDbEntity
  8
0
  6
PHANTOM
 62
     8
370
     0
100
AcDbSpline
210
0.0
220
0.0
230
1.0
 70
     8
 71
     3
 72
    27
 73
    23
 74
     0
 42
0.000000001
 43
0.00000001
 40
0.0
 40
0.0
 40
0.0
 40
0.0
 40
0.0496537800250725
 40
0.0993080526552388
 40
0.1491733878350325
 40
0.1990388932614587
 40
0.2492094046199014
 40
0.2993793822726545
 40
0.3497232709883965
 40
0.4000662663446892
 40
0.4503842631712169
 40
0.5007018234503864
 40
0.5508680768932396
 40
0.6010347631326048
 40
0.6510556784072923
 40
0.7010774495645129
 40
0.7510078501765106
 40
0.8009387612179139
 40
0.8507834814040739
 40
0.9006280382083455
 40
0.9503142709460936
 40
1.0
 40
1.0
 40
1.0
 40
1.0
 10
905.7912442000109
 20
1475.112697462853
 30
0.0
 10
905.894494569249
 20
1473.707730780604
 30
0.0
 10
906.100996332051
 20
1470.897783477715
 30
0.0
 10
905.5195196325599
 20
1466.686406136614
 30
0.0
 10
904.2758955343519
 20
1462.630963936035
 30
0.0
 10
902.3607311616502
 20
1458.822762241085
 30
0.0
 10
899.8167635281119
 20
1455.392929139292
 30
0.0
 10
896.7279267557045
 20
1452.421082204511
 30
0.0
 10
893.1658029254298
 20
1450.024049776195
 30
0.0
 10
889.2488408804533
 20
1448.249499930244
 30
0.0
 10
885.082387968861
 20
1447.180459147613
 30
0.0
 10
880.8001459539925
 20
1446.818769852242
 30
0.0
 10
876.5243959092115
 20
1447.203397474446
 30
0.0
 10
872.3806767938032
 20
1448.288571504414
 30
0.0
 10
868.4919431853433
 20
1450.069645796118
 30
0.0
 10
864.9582983888371
 20
1452.463349688756
 30
0.0
 10
861.8921590169541
 20
1455.425589097926
 30
0.0
 10
859.3612383301454
 20
1458.847130705472
 30
0.0
 10
857.4528315357251
 20
1462.64977206855
 30
0.0
 10
856.2124152438254
 20
1466.705889133927
 30
0.0
 10
855.6340596026372
 20
1470.918984550624
 30
0.0
 10
855.8432740451136
 20
1473.730563415253
 30
0.0
 10
855.9478807361322
 20
1475.136345722083
 30
0.0
  0
LWPOLYLINE
  5
16F
330
1F
100
AcDbEntity
  8
0
  6
PHANTOM
 62
     8
370
     0
100
AcDbPolyline
 90
        3
 70
   128
 43
0.0
 10
911.9663543166
 20
1476.0247268754
 10
908.1303688796
 20
1475.4581730853
 10
905.7908530445
 20
1475.1126396044
  0
SPLINE
  5
170
330
1F
100
AcDbEntity
  8
0
  6
PHANTOM
 62
     8
370
     0
100
AcDbSpline
210
0.0
220
0.0
230
1.0
 70
     8
 71
     3
 72
     9
 73
     5
 74
     0
 42
0.000000001
 43
0.00000001
 40
0.0
 40
0.0
 40
0.0
 40
0.0
 40
0.4999994993202191
 40
1.0
 40
1.0
 40
1.0
 40
1.0
 10
849.7764474810558
 20
1476.087563500576
 30
0.0
 10
849.4130897572255
 20
1476.132932222709
 30
0.0
 10
848.6863735818607
 20
1476.223669757836
 30
0.0
 10
847.8858635622823
 20
1476.31195857701
 30
0.0
 10
847.4856081516939
 20
1476.356103030801
 30
0.0
  0
SPLINE
  5
171
330
1F
100
AcDbEntity
  8
0
  6
PHANTOM
 62
     8
370
     0
100
AcDbSpline
210
0.0
220
0.0
230
1.0
 70
     8
 71
     3
 72
     9
 73
     5
 74
     0
 42
0.000000001
 43
0.00000001
 40
0.0
 40
0.0
 40
0.0
 40
0.0
 40
0.5001055700239753
 40
1.0
 40
1.0
 40
1.0
 40
1.0
 10
858.6900110454756
 20
1497.473085419577
 30
0.0
 10
858.9532714167689
 20
1497.155222198297
 30
0.0
 10
859.479681013208
 20
1496.519629954713
 30
0.0
 10
859.953061094852
 20
1495.93533231317
 30
0.0
 10
860.1897011609274
 20
1495.643245176714
 30
0.0
  0
SPLINE
  5
172
330
1F
100
AcDbEntity
  8
0
  6
PHANTOM
 62
     8
370
     0
100
AcDbSpline
210
0.0
220
0.0
230
1.0
 70
     8
 71
     3
 72
    14
 73
    10
 74
     0
 42
0.000000001
 43
0.00000001
 40
0.0
 40
0.0
 40
0.0
 40
0.0
 40
0.0000025859551742
 40
0.0497979414855804
 40
0.274643153780514
 40
0.4994910933307783
 40
0.70903929011424
 40
0.9185717652762261
 40
1.0
 40
1.0
 40
1.0
 40
1.0
 10
860.1910683424669
 20
1495.641537131112
 30
0.0
 10
860.1910528203902
 20
1495.6415253344
 30
0.0
 10
859.8921429709005
 20
1495.414355115552
 30
0.0
 10
858.451520855023
 20
1493.915852482267
 30
0.0
 10
855.9063034383055
 20
1491.140114557212
 30
0.0
 10
853.2480632020428
 20
1486.90886953963
 30
0.0
 10
851.2755505657125
 20
1482.464078301707
 30
0.0
 10
850.2274194608236
 20
1478.822821370471
 30
0.0
 10
849.8709811412656
 20
1476.659882742932
 30
0.0
 10
849.7712283493477
 20
1476.054562958259
 30
0.0
  0
SPLINE
  5
173
330
1F
100
AcDbEntity
  8
0
  6
PHANTOM
 62
     8
370
     0
100
AcDbSpline
210
0.0
220
0.0
230
1.0
 70
     8
 71
     3
 72
     9
 73
     5
 74
     0
 42
0.000000001
 43
0.00000001
 40
0.0
 40
0.0
 40
0.0
 40
0.0
 40
0.5000005815297942
 40
1.0
 40
1.0
 40
1.0
 40
1.0
 10
903.1266520829397
 20
1497.399931893986
 30
0.0
 10
902.849449959325
 20
1497.095042810339
 30
0.0
 10
902.2950463569001
 20
1496.485265352253
 30
0.0
 10
901.7962334241688
 20
1495.924454792945
 30
0.0
 10
901.5468272478777
 20
1495.644049839419
 30
0.0
  0
SPLINE
  5
174
330
1F
100
AcDbEntity
  8
0
  6
PHANTOM
 62
     8
370
     0
100
AcDbSpline
210
0.0
220
0.0
230
1.0
 70
     8
 71
     3
 72
     9
 73
     5
 74
     0
 42
0.000000001
 43
0.00000001
 40
0.0
 40
0.0
 40
0.0
 40
0.0
 40
0.5000004081085276
 40
1.0
 40
1.0
 40
1.0
 40
1.0
 10
911.9661773653227
 20
1476.024456675466
 30
0.0
 10
912.3306465632288
 20
1476.064593621547
 30
0.0
 10
913.0595843640697
 20
1476.144867448188
 30
0.0
 10
913.8626051634019
 20
1476.221589577367
 30
0.0
 10
914.2641152353483
 20
1476.259950610645
 30
0.0
  0
SPLINE
  5
175
330
1F
100
AcDbEntity
  8
0
  6
PHANTOM
 62
     8
370
     0
100
AcDbSpline
210
0.0
220
0.0
230
1.0
 70
     8
 71
     3
 72
    14
 73
    10
 74
     0
 42
0.000000001
 43
0.00000001
 40
0.0
 40
0.0
 40
0.0
 40
0.0
 40
0.0000026468147413
 40
0.0947357877435989
 40
0.2969078861197899
 40
0.4990904200919307
 40
0.6997949666342161
 40
0.9004921377580674
 40
1.0
 40
1.0
 40
1.0
 40
1.0
 10
911.9661512882906
 20
1476.02472582769
 30
0.0
 10
911.9661500465579
 20
1476.024745773519
 30
0.0
 10
911.9217054815978
 20
1476.73865437115
 30
0.0
 10
911.412794213942
 20
1478.932430597046
 30
0.0
 10
910.4373060872894
 20
1482.570560363412
 30
0.0
 10
908.5526155367043
 20
1486.754200740166
 30
0.0
 10
906.1397926434464
 20
1490.627871834292
 30
0.0
 10
903.7315611074849
 20
1493.562414405722
 30
0.0
 10
902.0907131177757
 20
1495.125830151612
 30
0.0
 10
901.5468272478777
 20
1495.644049839419
 30
0.0
  0
SPLINE
  5
176
330
1F
100
AcDbEntity
  8
0
  6
PHANTOM
 62
     8
370
     0
100
AcDbSpline
210
0.0
220
0.0
230
1.0
 70
     8
 71
     3
 72
    15
 73
    11
 74
     0
 42
0.000000001
 43
0.00000001
 40
0.0
 40
0.0
 40
0.0
 40
0.0
 40
0.1149854031974451
 40
0.2299723922946192
 40
0.3649893366878811
 40
0.500007521283514
 40
0.6342164411273417
 40
0.7684241376693627
 40
0.8842128473288217
 40
1.0
 40
1.0
 40
1.0
 40
1.0
 10
861.0241009952026
 20
1499.439209820073
 30
0.0
 10
862.3805258381291
 20
1500.336409379084
 30
0.0
 10
865.0933942320415
 20
1502.130820871446
 30
0.0
 10
869.8578210053247
 20
1504.164782953797
 30
0.0
 10
875.1411962656938
 20
1505.537259342271
 30
0.0
 10
880.8570259597001
 20
1506.027059719398
 30
0.0
 10
886.5613089246846
 20
1505.541131188555
 30
0.0
 10
891.8351448119693
 20
1504.179493648388
 30
0.0
 10
896.6135148420897
 20
1502.148407669885
 30
0.0
 10
899.3459045876103
 20
1500.342270480424
 30
0.0
 10
900.7120902748304
 20
1499.439207957428
 30
0.0
  0
SPLINE
  5
177
330
1F
100
AcDbEntity
  8
0
  6
PHANTOM
 62
     8
370
     0
100
AcDbSpline
210
0.0
220
0.0
230
1.0
 70
     8
 71
     3
 72
     9
 73
     5
 74
     0
 42
0.000000001
 43
0.00000001
 40
0.0
 40
0.0
 40
0.0
 40
0.0
 40
0.500001142938521
 40
0.9999999999999999
 40
0.9999999999999999
 40
0.9999999999999999
 40
0.9999999999999999
 10
900.747445142408
 20
1499.405698971193
 30
0.0
 10
900.4875809511867
 20
1499.06223407901
 30
0.0
 10
899.9678537567768
 20
1498.375305864875
 30
0.0
 10
899.498764768216
 20
1497.746096511123
 30
0.0
 10
899.2642208100754
 20
1497.431492553394
 30
0.0
  0
SPLINE
  5
178
330
1F
100
AcDbEntity
  8
0
  6
PHANTOM
 62
     8
370
     0
100
AcDbSpline
210
0.0
220
0.0
230
1.0
 70
     8
 71
     3
 72
    15
 73
    11
 74
     0
 42
0.000000001
 43
0.00000001
 40
0.0
 40
0.0
 40
0.0
 40
0.0
 40
0.1157865201343504
 40
0.2315737446697861
 40
0.365782839671378
 40
0.4999925631453853
 40
0.6350114811415606
 40
0.7700297592569555
 40
0.8850152408442382
 40
1.0
 40
1.0
 40
1.0
 40
1.0
 10
899.2642133594948
 20
1497.43149814133
 30
0.0
 10
897.997569426934
 20
1498.268358597372
 30
0.0
 10
895.4642738560331
 20
1499.942084600597
 30
0.0
 10
891.0348027591608
 20
1501.825213008061
 30
0.0
 10
886.1459087094422
 20
1503.087942189253
 30
0.0
 10
880.8578342694682
 20
1503.538733054716
 30
0.0
 10
875.5590565061115
 20
1503.084349857597
 30
0.0
 10
870.6613229207601
 20
1501.811572860449
 30
0.0
 10
866.2447756472744
 20
1499.92578542208
 30
0.0
 10
863.7295770058846
 20
1498.262929218964
 30
0.0
 10
862.4719816358286
 20
1497.431503729265
 30
0.0
  0
SPLINE
  5
179
330
1F
100
AcDbEntity
  8
0
  6
PHANTOM
 62
     8
370
     0
100
AcDbSpline
210
0.0
220
0.0
230
1.0
 70
     8
 71
     3
 72
     9
 73
     5
 74
     0
 42
0.000000001
 43
0.00000001
 40
0.0
 40
0.0
 40
0.0
 40
0.0
 40
0.5000006142786354
 40
1.0
 40
1.0
 40
1.0
 40
1.0
 10
861.0241009952026
 20
1499.439209820073
 30
0.0
 10
861.2777408171052
 20
1499.089857411638
 30
0.0
 10
861.7850198376889
 20
1498.391153453166
 30
0.0
 10
862.2429945573315
 20
1497.751386708569
 30
0.0
 10
862.4719816358286
 20
1497.431503729265
 30
0.0
  0
LWPOLYLINE
  5
17A
330
1F
100
AcDbEntity
  8
0
  6
PHANTOM
 62
     8
370
     0
100
AcDbPolyline
 90
        3
 70
   128
 43
0.0
 10
864.2896290035
 20
1490.8799381268
 10
862.7305577607
 20
1492.6916026783
 10
860.190908155
 20
1495.6427143228
  0
SPLINE
  5
17B
330
1F
100
AcDbEntity
  8
0
  6
PHANTOM
 62
     8
370
     0
100
AcDbSpline
210
0.0
220
0.0
230
1.0
 70
     8
 71
     3
 72
    13
 73
     9
 74
     0
 42
0.000000001
 43
0.00000001
 40
0.0
 40
0.0
 40
0.0
 40
0.0
 40
0.0000033894394054
 40
0.2313457791944652
 40
0.462694080114667
 40
0.6949524779918412
 40
0.9272037042614137
 40
1.0
 40
1.0
 40
1.0
 40
1.0
 10
855.9480222971636
 20
1475.136426048655
 30
0.0
 10
855.9480247806803
 20
1475.136445839256
 30
0.0
 10
856.1175369101559
 20
1476.487250926815
 30
0.0
 10
856.7425055186966
 20
1479.294567661456
 30
0.0
 10
858.290631826128
 20
1483.205372399525
 30
0.0
 10
860.4911749993795
 20
1486.829111332727
 30
0.0
 10
862.6048044171384
 20
1489.327798797812
 30
0.0
 10
863.9653334314962
 20
1490.580541342276
 30
0.0
 10
864.2900089831548
 20
1490.879494817298
 30
0.0
  0
SPLINE
  5
17C
330
1F
100
AcDbEntity
  8
0
  6
PHANTOM
 62
     8
370
     0
100
AcDbSpline
210
0.0
220
0.0
230
1.0
 70
     8
 71
     3
 72
    12
 73
     8
 74
     0
 42
0.000000001
 43
0.00000001
 40
0.0
 40
0.0
 40
0.0
 40
0.0
 40
0.0000032953859594
 40
0.2455848168209587
 40
0.491173421380157
 40
0.7433750056488948
 40
1.0
 40
1.0
 40
1.0
 40
1.0
 10
897.4463461996513
 20
1490.879848719876
 30
0.0
 10
897.4463611008175
 20
1490.879835370925
 30
0.0
 10
898.5568532291784
 20
1489.885020271781
 30
0.0
 10
900.6115565917597
 20
1487.701894500735
 30
0.0
 10
903.087780665061
 20
1483.914322869839
 30
0.0
 10
904.9412472470367
 20
1479.688440835569
 30
0.0
 10
905.5060170141987
 20
1476.646729444252
 30
0.0
 10
905.7908567698198
 20
1475.112652410124
 30
0.0
  0
LWPOLYLINE
  5
17D
330
1F
100
AcDbEntity
  8
0
  6
PHANTOM
 62
     8
370
     0
100
AcDbPolyline
 90
        3
 70
   128
 43
0.0
 10
897.4462065013
 20
1490.879869209
 10
899.0070081414
 20
1492.6930983824
 10
901.5466577472
 20
1495.6434854579
  0
SPLINE
  5
17E
330
1F
100
AcDbEntity
  8
0
  6
PHANTOM
 62
     8
370
     0
100
AcDbSpline
210
0.0
220
0.0
230
1.0
 70
     8
 71
     3
 72
     9
 73
     5
 74
     0
 42
0.000000001
 43
0.00000001
 40
0.0
 40
0.0
 40
0.0
 40
0.0
 40
0.0391750189470588
 40
1.0
 40
1.0
 40
1.0
 40
1.0
 10
862.4735276313024
 20
1497.429322571796
 30
0.0
 10
862.4428603156742
 20
1497.407110373281
 30
0.0
 10
861.6600319609593
 20
1496.840111323596
 30
0.0
 10
860.9101788051502
 20
1496.229722248361
 30
0.0
 10
860.1897011609274
 20
1495.643245176714
 30
0.0
  0
LINE
  5
17F
330
1F
100
AcDbEntity
  8
0
  6
PHANTOM
 62
     8
370
     0
100
AcDbLine
 10
901.5464640321
 20
1495.6432619405
 30
0.0
 11
899.262667364
 21
1497.4293169839
 31
0.0
  0
SPLINE
  5
180
330
1F
100
AcDbEntity
  8
0
  6
PHANTOM
 62
     8
370
     0
100
AcDbSpline
210
0.0
220
0.0
230
1.0
 70
     8
 71
     3
 72
    16
 73
    12
 74
     0
 42
0.000000001
 43
0.00000001
 40
0.0
 40
0.0
 40
0.0
 40
0.0
 40
0.1163144886260236
 40
0.2326294168392582
 40
0.3490716640772537
 40
0.4655141404155648
 40
0.5819707486671405
 40
0.6984272779510069
 40
0.8147775741197847
 40
0.9311275048797487
 40
1.0
 40
1.0
 40
1.0
 40
1.0
 10
864.2896625311571
 20
1490.8802044851
 30
0.0
 10
865.3901253125216
 20
1491.753919193481
 30
0.0
 10
867.5910550342282
 20
1493.501351912273
 30
0.0
 10
871.3861701628729
 20
1495.388138962188
 30
0.0
 10
875.4203346339162
 20
1496.644555401898
 30
0.0
 10
879.6154054177092
 20
1497.213008566107
 30
0.0
 10
883.8436336022335
 20
1497.061009327689
 30
0.0
 10
887.9913261715918
 20
1496.22064415451
 30
0.0
 10
891.9266068834602
 20
1494.679968874187
 30
0.0
 10
895.0847516460225
 20
1492.833606697206
 30
0.0
 10
896.8063548593717
 20
1491.409686209184
 30
0.0
 10
897.4465101124244
 20
1490.880220317584
 30
0.0
  0
SPLINE
  5
181
330
1F
100
AcDbEntity
  8
0
  6
PHANTOM
 62
     8
370
     0
100
AcDbSpline
210
0.0
220
0.0
230
1.0
 70
     8
 71
     3
 72
    11
 73
     7
 74
     0
 42
0.000000001
 43
0.00000001
 40
0.0
 40
0.0
 40
0.0
 40
0.0
 40
0.250000034730813
 40
0.5000005977778553
 40
0.7499993302319948
 40
1.0
 40
1.0
 40
1.0
 40
1.0
 10
903.2197508127886
 20
1474.565835324418
 30
0.0
 10
903.2513437343164
 20
1474.594960687105
 30
0.0
 10
903.3145296441362
 20
1474.653211474029
 30
0.0
 10
903.856835323235
 20
1474.786435867785
 30
0.0
 10
904.6717433251181
 20
1474.94186038894
 30
0.0
 10
905.4178179913309
 20
1475.055721589339
 30
0.0
 10
905.7908567698198
 20
1475.112652410124
 30
0.0
  0
SPLINE
  5
182
330
1F
100
AcDbEntity
  8
0
  6
PHANTOM
 62
     8
370
     0
100
AcDbSpline
210
0.0
220
0.0
230
1.0
 70
     8
 71
     3
 72
    11
 73
     7
 74
     0
 42
0.000000001
 43
0.00000001
 40
0.0
 40
0.0
 40
0.0
 40
0.0
 40
0.2500005057874697
 40
0.5000014026424033
 40
0.749998972007882
 40
1.0
 40
1.0
 40
1.0
 40
1.0
 10
858.5199180157381
 20
1474.595811105635
 30
0.0
 10
858.4882407645897
 20
1474.62398343207
 30
0.0
 10
858.4248862127413
 20
1474.680328129008
 30
0.0
 10
857.882315788224
 20
1474.811529578339
 30
0.0
 10
857.0671615608811
 20
1474.965664753898
 30
0.0
 10
856.3209760649048
 20
1475.079451803656
 30
0.0
 10
855.9478807361322
 20
1475.136345722083
 30
0.0
  0
SPLINE
  5
183
330
1F
100
AcDbEntity
  8
0
  6
PHANTOM
 62
     8
370
     0
100
AcDbSpline
210
0.0
220
0.0
230
1.0
 70
     8
 71
     3
 72
    11
 73
     7
 74
     0
 42
0.000000001
 43
0.00000001
 40
0.0
 40
0.0
 40
0.0
 40
0.0
 40
0.2500001504027581
 40
0.5000002184587932
 40
0.7499994644480272
 40
0.9999999999999999
 40
0.9999999999999999
 40
0.9999999999999999
 40
0.9999999999999999
 10
897.4463461996513
 20
1490.879848719876
 30
0.0
 10
897.2000485327208
 20
1490.590986921943
 30
0.0
 10
896.7074532799867
 20
1490.013263421224
 30
0.0
 10
896.1790490714445
 20
1489.367905100459
 30
0.0
 10
895.8369937522411
 20
1488.925096717011
 30
0.0
 10
895.811030383907
 20
1488.854565223763
 30
0.0
 10
895.7980486662584
 20
1488.819299386185
 30
0.0
  0
SPLINE
  5
184
330
1F
100
AcDbEntity
  8
0
  6
PHANTOM
 62
     8
370
     0
100
AcDbSpline
210
0.0
220
0.0
230
1.0
 70
     8
 71
     3
 72
    11
 73
     7
 74
     0
 42
0.000000001
 43
0.00000001
 40
0.0
 40
0.0
 40
0.0
 40
0.0
 40
0.2499984292661014
 40
0.4999989354490939
 40
0.749997927301377
 40
1.0
 40
1.0
 40
1.0
 40
1.0
 10
864.2931326390701
 20
1490.883249909919
 30
0.0
 10
864.540333599848
 20
1490.595105801112
 30
0.0
 10
865.0347375750802
 20
1490.018815189679
 30
0.0
 10
865.5679448273594
 20
1489.377542121897
 30
0.0
 10
865.915907780194
 20
1488.939860741881
 30
0.0
 10
865.9464355153485
 20
1488.873397496115
 30
0.0
 10
865.961699476977
 20
1488.840165668469
 30
0.0
  0
LINE
  5
185
330
1F
100
AcDbEntity
  8
0
  6
PHANTOM
 62
     8
370
     0
100
AcDbLine
 10
1430.8681066246
 20
1802.0526507211
 30
0.0
 11
1430.8681066246
 21
1201.999817164
 31
0.0
  0
LINE
  5
186
330
1F
100
AcDbEntity
  8
0
  6
PHANTOM
 62
     8
370
     0
100
AcDbLine
 10
1420.8681161614
 20
1201.999817164
 30
0.0
 11
1430.8681066246
 21
1201.999817164
 31
0.0
  0
LINE
  5
187
330
1F
100
AcDbEntity
  8
0
  6
PHANTOM
 62
     8
370
     0
100
AcDbLine
 10
1500.8680994721
 20
1201.999817164
 30
0.0
 11
1490.8681090088
 21
1201.999817164
 31
0.0
  0
LINE
  5
188
330
1F
100
AcDbEntity
  8
0
  6
PHANTOM
 62
     8
370
     0
100
AcDbLine
 10
1490.8681090088
 20
1201.999817164
 30
0.0
 11
1490.8681090088
 21
1802.0530679536
 31
0.0
  0
ARC
  5
189
330
1F
100
AcDbEntity
  8
0
  6
PHANTOM
 62
     8
370
     0
100
AcDbCircle
 10
1460.8680947037
 20
1201.9998231194
 30
0.0
 40
30.0
100
AcDbArc
 50
180.0
 51
0.0
  0
LINE
  5
18A
330
1F
100
AcDbEntity
  8
0
  6
PHANTOM
 62
     8
370
     0
100
AcDbLine
 10
270.8680803986
 20
1802.0526507211
 30
0.0
 11
270.8680803986
 21
1201.999817164
 31
0.0
  0
LINE
  5
18B
330
1F
100
AcDbEntity
  8
0
  6
PHANTOM
 62
     8
370
     0
100
AcDbLine
 10
260.8680899353
 20
1201.999817164
 30
0.0
 11
270.8680803986
 21
1201.999817164
 31
0.0
  0
LINE
  5
18C
330
1F
100
AcDbEntity
  8
0
  6
PHANTOM
 62
     8
370
     0
100
AcDbLine
 10
340.868073246
 20
1201.999817164
 30
0.0
 11
330.8680827828
 21
1201.999817164
 31
0.0
  0
LINE
  5
18D
330
1F
100
AcDbEntity
  8
0
  6
PHANTOM
 62
     8
370
     0
100
AcDbLine
 10
330.8680827828
 20
1201.999817164
 30
0.0
 11
330.8680827828
 21
1802.0530679536
 31
0.0
  0
ARC
  5
18E
330
1F
100
AcDbEntity
  8
0
  6
PHANTOM
 62
     8
370
     0
100
AcDbCircle
 10
300.8680947037
 20
1201.9998231194
 30
0.0
 40
29.99999999999983
100
AcDbArc
 50
180.0
 51
0.0
  0
LINE
  5
18F
330
1F
100
AcDbEntity
  8
0
  6
PHANTOM
 62
     8
370
     0
100
AcDbLine
 10
258.8681156845
 20
1802.0525911165
 30
0.0
 11
258.8681156845
 21
1201.999817164
 31
0.0
  0
LINE
  5
190
330
1F
100
AcDbEntity
  8
0
  6
PHANTOM
 62
     8
370
     0
100
AcDbLine
 10
258.8681156845
 20
1201.999817164
 30
0.0
 11
255.8680947037
 21
1201.999817164
 31
0.0
  0
LINE
  5
191
330
1F
100
AcDbEntity
  8
0
  6
PHANTOM
 62
     8
370
     0
100
AcDbLine
 10
342.8681071015
 20
1201.999817164
 30
0.0
 11
345.8680684777
 21
1201.999817164
 31
0.0
  0
LINE
  5
192
330
1F
100
AcDbEntity
  8
0
  6
PHANTOM
 62
     8
370
     0
100
AcDbLine
 10
342.8681071015
 20
1201.999817164
 30
0.0
 11
342.8681071015
 21
1202.0531335187
 31
0.0
  0
ARC
  5
193
330
1F
100
AcDbEntity
  8
0
  6
PHANTOM
 62
     8
370
     0
100
AcDbCircle
 10
300.8680946988
 20
1201.9998231194
 30
0.0
 40
41.99999999999983
100
AcDbArc
 50
180.0
 51
0.0
  0
LINE
  5
194
330
1F
100
AcDbEntity
  8
0
  6
PHANTOM
 62
     8
370
     0
100
AcDbLine
 10
1502.8680737229
 20
1201.999817164
 30
0.0
 11
1502.8680737229
 21
1802.0525911165
 31
0.0
  0
ARC
  5
195
330
1F
100
AcDbEntity
  8
0
  6
PHANTOM
 62
     8
370
     0
100
AcDbCircle
 10
1460.8680947037
 20
1201.9998231194
 30
0.0
 40
42.0
100
AcDbArc
 50
180.0
 51
0.0
  0
LINE
  5
196
330
1F
100
AcDbEntity
  8
0
  6
PHANTOM
 62
     8
370
     0
100
AcDbLine
 10
1418.8680823059
 20
1202.0531335187
 30
0.0
 11
1418.8680823059
 21
1201.999817164
 31
0.0
  0
LINE
  5
197
330
1F
100
AcDbEntity
  8
0
  6
PHANTOM
 62
     8
370
     0
100
AcDbLine
 10
1418.8680823059
 20
1201.999817164
 30
0.0
 11
1415.8681209297
 21
1201.999817164
 31
0.0
  0
LINE
  5
198
330
1F
100
AcDbEntity
  8
0
  6
PHANTOM
 62
     8
370
     0
100
AcDbLine
 10
1502.8680737229
 20
1201.999817164
 30
0.0
 11
1505.8680947037
 21
1201.999817164
 31
0.0
  0
LINE
  5
199
330
1F
100
AcDbEntity
  8
0
  6
PHANTOM
 62
     8
370
     0
100
AcDbLine
 10
1420.8681161614
 20
1227.0531394792
 30
0.0
 11
340.868073246
 21
1227.0531394792
 31
0.0
  0
LINE
  5
19A
330
1F
100
AcDbEntity
  8
0
  6
PHANTOM
 62
     8
370
     0
100
AcDbLine
 10
340.868073246
 20
1207.0531287504
 30
0.0
 11
1420.8681161614
 21
1207.0531287504
 31
0.0
  0
LINE
  5
19B
330
1F
100
AcDbEntity
  8
0
  6
PHANTOM
 62
     8
370
     0
100
AcDbLine
 10
1420.8681161614
 20
1797.0531323266
 30
0.0
 11
340.868073246
 21
1797.0531323266
 31
0.0
  0
LINE
  5
19C
330
1F
100
AcDbEntity
  8
0
  6
PHANTOM
 62
     8
370
     0
100
AcDbLine
 10
340.868073246
 20
1777.0531514001
 30
0.0
 11
1420.8681161614
 21
1777.0531514001
 31
0.0
  0
LINE
  5
19D
330
1F
100
AcDbEntity
  8
0
  6
PHANTOM
 62
     8
370
     0
100
AcDbLine
 10
639.8680980416
 20
1332.0531436515
 30
0.0
 11
639.8680980416
 21
1565.0531390024
 31
0.0
  0
ARC
  5
19E
330
1F
100
AcDbEntity
  8
0
  6
PHANTOM
 62
     8
370
     0
100
AcDbCircle
 10
674.8680947037
 20
1332.0531394792
 30
0.0
 40
35.0
100
AcDbArc
 50
180.0
 51
270.0
  0
LINE
  5
19F
330
1F
100
AcDbEntity
  8
0
  6
PHANTOM
 62
     8
370
     0
100
AcDbLine
 10
1086.8680949421
 20
1297.0531323266
 30
0.0
 11
674.8680944653
 21
1297.0531323266
 31
0.0
  0
ARC
  5
1A0
330
1F
100
AcDbEntity
  8
0
  6
PHANTOM
 62
     8
370
     0
100
AcDbCircle
 10
1086.8680947037
 20
1332.0531394792
 30
0.0
 40
35.0
100
AcDbArc
 50
270.0
 51
0.0
  0
LINE
  5
1A1
330
1F
100
AcDbEntity
  8
0
  6
PHANTOM
 62
     8
370
     0
100
AcDbLine
 10
1121.8680913658
 20
1565.0531390024
 30
0.0
 11
1121.8680913658
 21
1332.0531436515
 31
0.0
  0
ARC
  5
1A2
330
1F
100
AcDbEntity
  8
0
  6
PHANTOM
 62
     8
370
     0
100
AcDbCircle
 10
1086.8680947037
 20
1565.0531394792
 30
0.0
 40
34.99999999999977
100
AcDbArc
 50
0.0
 51
90.0
  0
LINE
  5
1A3
330
1F
100
AcDbEntity
  8
0
  6
PHANTOM
 62
     8
370
     0
100
AcDbLine
 10
674.8680944653
 20
1600.0531428767
 30
0.0
 11
1086.8680949421
 21
1600.0531428767
 31
0.0
  0
ARC
  5
1A4
330
1F
100
AcDbEntity
  8
0
  6
PHANTOM
 62
     8
370
     0
100
AcDbCircle
 10
674.8680947037
 20
1565.0531394792
 30
0.0
 40
34.99999999999989
100
AcDbArc
 50
90.0
 51
180.0
  0
LINE
  5
1A5
330
1F
100
AcDbEntity
  8
0
  6
PHANTOM
 62
     8
370
     0
100
AcDbLine
 10
1086.8680949421
 20
1585.0531422806
 30
0.0
 11
1086.8680949421
 21
1600.0531428767
 31
0.0
  0
LINE
  5
1A6
330
1F
100
AcDbEntity
  8
0
  6
PHANTOM
 62
     8
370
     0
100
AcDbLine
 10
1106.8680907698
 20
1565.0531390024
 30
0.0
 11
1121.8680913658
 21
1565.0531390024
 31
0.0
  0
LINE
  5
1A7
330
1F
100
AcDbEntity
  8
0
  6
PHANTOM
 62
     8
370
     0
100
AcDbLine
 10
674.8680944653
 20
1600.0531428767
 30
0.0
 11
674.8680944653
 21
1585.0531422806
 31
0.0
  0
LINE
  5
1A8
330
1F
100
AcDbEntity
  8
0
  6
PHANTOM
 62
     8
370
     0
100
AcDbLine
 10
639.8680980416
 20
1565.0531390024
 30
0.0
 11
654.8680986376
 21
1565.0531390024
 31
0.0
  0
LINE
  5
1A9
330
1F
100
AcDbEntity
  8
0
  6
PHANTOM
 62
     8
370
     0
100
AcDbLine
 10
1106.8680907698
 20
1332.0531436515
 30
0.0
 11
1121.8680913658
 21
1332.0531436515
 31
0.0
  0
LINE
  5
1AA
330
1F
100
AcDbEntity
  8
0
  6
PHANTOM
 62
     8
370
     0
100
AcDbLine
 10
639.8680980416
 20
1332.0531436515
 30
0.0
 11
654.8680986376
 21
1332.0531436515
 31
0.0
  0
LINE
  5
1AB
330
1F
100
AcDbEntity
  8
0
  6
PHANTOM
 62
     8
370
     0
100
AcDbLine
 10
1086.8680949421
 20
1312.0531329227
 30
0.0
 11
1086.8680949421
 21
1297.0531323266
 31
0.0
  0
LINE
  5
1AC
330
1F
100
AcDbEntity
  8
0
  6
PHANTOM
 62
     8
370
     0
100
AcDbLine
 10
674.8680944653
 20
1297.0531323266
 30
0.0
 11
674.8680944653
 21
1312.0531329227
 31
0.0
  0
ENDSEC
  0
SECTION
  2
OBJECTS
  0
DICTIONARY
  5
C
330
0
100
AcDbDictionary
281
     1
  3
ACAD_GROUP
350
D
  3
ACAD_LAYOUT
350
1A
  3
ACAD_MLINESTYLE
350
17
  3
ACAD_PLOTSETTINGS
350
19
  3
ACAD_PLOTSTYLENAME
350
E
  3
ACAD_SCALELIST
350
47
  0
DICTIONARY
  5
D
102
{ACAD_REACTORS
330
C
102
}
330
C
100
AcDbDictionary
281
     1
  0
DICTIONARY
  5
1A
102
{ACAD_REACTORS
330
C
102
}
330
C
100
AcDbDictionary
281
     1
  3
Layout1
350
1E
  3
Layout2
350
26
  3
Model
350
22
  0
DICTIONARY
  5
17
102
{ACAD_REACTORS
330
C
102
}
330
C
100
AcDbDictionary
281
     1
  3
Standard
350
18
  0
DICTIONARY
  5
19
102
{ACAD_REACTORS
330
C
102
}
330
C
100
AcDbDictionary
281
     1
  0
ACDBDICTIONARYWDFLT
  5
E
102
{ACAD_REACTORS
330
C
102
}
330
C
100
AcDbDictionary
281
     1
  3
Normal
350
F
100
AcDbDictionaryWithDefault
340
F
  0
DICTIONARY
  5
47
102
{ACAD_REACTORS
330
C
102
}
330
C
100
AcDbDictionary
281
     1
  3
A0
350
48
  3
A1
350
49
  3
A2
350
4A
  3
A3
350
4B
  3
A4
350
4C
  3
A5
350
4D
  3
A6
350
4E
  3
A7
350
4F
  3
A8
350
50
  3
A9
350
51
  3
B0
350
52
  3
B1
350
53
  3
B2
350
54
  3
B3
350
55
  3
B4
350
56
  3
B5
350
57
  3
B6
350
58
  3
B7
350
59
  3
B8
350
5A
  3
B9
350
5B
  3
C0
350
5C
  3
C1
350
5D
  3
C2
350
5E
  3
C3
350
5F
  3
C4
350
60
  3
C5
350
61
  3
C6
350
62
  3
C7
350
63
  3
C8
350
64
  3
C9
350
65
  3
D0
350
66
  3
D1
350
67
  3
D2
350
68
  0
LAYOUT
  5
1E
102
{ACAD_REACTORS
330
1A
102
}
330
1A
100
AcDbPlotSettings
  1

  2
none_device
  4

  6

 40
0.0
 41
0.0
 42
0.0
 43
0.0
 44
0.0
 45
0.0
 46
0.0
 47
0.0
 48
0.0
 49
0.0
140
0.0
141
0.0
142
1.0
143
1.0
 70
   688
 72
     1
 73
     0
 74
     5
  7

 75
    16
147
1.0
148
0.0
149
0.0
100
AcDbLayout
  1
Layout1
 70
     1
 71
     1
 10
0.0
 20
0.0
 11
420.0
 21
297.0
 12
0.0
 22
0.0
 32
0.0
 14
1.0000000000E+20
 24
1.0000000000E+20
 34
1.0000000000E+20
 15
-1.0000000000E+20
 25
-1.0000000000E+20
 35
-1.0000000000E+20
146
0.0
 13
0.0
 23
0.0
 33
0.0
 16
1.0
 26
0.0
 36
0.0
 17
0.0
 27
1.0
 37
0.0
 76
     0
330
1B
  0
LAYOUT
  5
26
102
{ACAD_REACTORS
330
1A
102
}
330
1A
100
AcDbPlotSettings
  1

  2
none_device
  4

  6

 40
0.0
 41
0.0
 42
0.0
 43
0.0
 44
0.0
 45
0.0
 46
0.0
 47
0.0
 48
0.0
 49
0.0
140
0.0
141
0.0
142
1.0
143
1.0
 70
   688
 72
     1
 73
     0
 74
     5
  7

 75
    16
147
1.0
148
0.0
149
0.0
100
AcDbLayout
  1
Layout2
 70
     1
 71
     2
 10
0.0
 20
0.0
 11
0.0
 21
0.0
 12
0.0
 22
0.0
 32
0.0
 14
0.0
 24
0.0
 34
0.0
 15
0.0
 25
0.0
 35
0.0
146
0.0
 13
0.0
 23
0.0
 33
0.0
 16
1.0
 26
0.0
 36
0.0
 17
0.0
 27
1.0
 37
0.0
 76
     0
330
23
  0
LAYOUT
  5
22
102
{ACAD_REACTORS
330
1A
102
}
330
1A
100
AcDbPlotSettings
  1

  2
none_device
  4
Letter_(8.50_x_11.00_Inches)
  6

 40
6.35
 41
6.35
 42
6.35000508
 43
6.35000508
 44
215.9
 45
279.4
 46
0.0
 47
0.0
 48
0.0
 49
0.0
140
0.0
141
0.0
142
1.0
143
1.0
 70
  1712
 72
     1
 73
     0
 74
     0
  7

 75
     0
147
1.0
148
0.0
149
0.0
100
AcDbLayout
  1
Model
 70
     1
 71
     0
 10
0.0
 20
0.0
 11
2500.0
 21
2000.0
 12
0.0
 22
0.0
 32
0.0
 14
0.0
 24
0.0
 34
0.0
 15
2500.0
 25
2000.0
 35
0.0
146
0.0
 13
0.0
 23
0.0
 33
0.0
 16
1.0
 26
0.0
 36
0.0
 17
0.0
 27
1.0
 37
0.0
 76
     0
330
1F
331
29
  0
MLINESTYLE
  5
18
102
{ACAD_REACTORS
330
17
102
}
330
17
100
AcDbMlineStyle
  2
Standard
 70
     0
  3

 62
   256
 51
90.0
 52
90.0
 71
     2
 49
0.5
 62
   256
  6
BYLAYER
 49
-0.5
 62
   256
  6
BYLAYER
  0
ACDBPLACEHOLDER
  5
F
102
{ACAD_REACTORS
330
E
102
}
330
E
  0
SCALE
  5
48
102
{ACAD_REACTORS
330
47
102
}
330
47
100
AcDbScale
 70
     0
300
1:1
140
1.0
141
1.0
290
     1
  0
SCALE
  5
49
102
{ACAD_REACTORS
330
47
102
}
330
47
100
AcDbScale
 70
     0
300
1:2
140
1.0
141
2.0
290
     0
  0
SCALE
  5
4A
102
{ACAD_REACTORS
330
47
102
}
330
47
100
AcDbScale
 70
     0
300
1:4
140
1.0
141
4.0
290
     0
  0
SCALE
  5
4B
102
{ACAD_REACTORS
330
47
102
}
330
47
100
AcDbScale
 70
     0
300
1:5
140
1.0
141
5.0
290
     0
  0
SCALE
  5
4C
102
{ACAD_REACTORS
330
47
102
}
330
47
100
AcDbScale
 70
     0
300
1:8
140
1.0
141
8.0
290
     0
  0
SCALE
  5
4D
102
{ACAD_REACTORS
330
47
102
}
330
47
100
AcDbScale
 70
     0
300
1:10
140
1.0
141
10.0
290
     0
  0
SCALE
  5
4E
102
{ACAD_REACTORS
330
47
102
}
330
47
100
AcDbScale
 70
     0
300
1:16
140
1.0
141
16.0
290
     0
  0
SCALE
  5
4F
102
{ACAD_REACTORS
330
47
102
}
330
47
100
AcDbScale
 70
     0
300
1:20
140
1.0
141
20.0
290
     0
  0
SCALE
  5
50
102
{ACAD_REACTORS
330
47
102
}
330
47
100
AcDbScale
 70
     0
300
1:30
140
1.0
141
30.0
290
     0
  0
SCALE
  5
51
102
{ACAD_REACTORS
330
47
102
}
330
47
100
AcDbScale
 70
     0
300
1:40
140
1.0
141
40.0
290
     0
  0
SCALE
  5
52
102
{ACAD_REACTORS
330
47
102
}
330
47
100
AcDbScale
 70
     0
300
1:50
140
1.0
141
50.0
290
     0
  0
SCALE
  5
53
102
{ACAD_REACTORS
330
47
102
}
330
47
100
AcDbScale
 70
     0
300
1:100
140
1.0
141
100.0
290
     0
  0
SCALE
  5
54
102
{ACAD_REACTORS
330
47
102
}
330
47
100
AcDbScale
 70
     0
300
2:1
140
2.0
141
1.0
290
     0
  0
SCALE
  5
55
102
{ACAD_REACTORS
330
47
102
}
330
47
100
AcDbScale
 70
     0
300
4:1
140
4.0
141
1.0
290
     0
  0
SCALE
  5
56
102
{ACAD_REACTORS
330
47
102
}
330
47
100
AcDbScale
 70
     0
300
8:1
140
8.0
141
1.0
290
     0
  0
SCALE
  5
57
102
{ACAD_REACTORS
330
47
102
}
330
47
100
AcDbScale
 70
     0
300
10:1
140
10.0
141
1.0
290
     0
  0
SCALE
  5
58
102
{ACAD_REACTORS
330
47
102
}
330
47
100
AcDbScale
 70
     0
300
100:1
140
100.0
141
1.0
290
     0
  0
SCALE
  5
59
102
{ACAD_REACTORS
330
47
102
}
330
47
100
AcDbScale
 70
     0
300
1/128" = 1'-0"
140
0.0078125
141
12.0
290
     0
  0
SCALE
  5
5A
102
{ACAD_REACTORS
330
47
102
}
330
47
100
AcDbScale
 70
     0
300
1/64" = 1'-0"
140
0.015625
141
12.0
290
     0
  0
SCALE
  5
5B
102
{ACAD_REACTORS
330
47
102
}
330
47
100
AcDbScale
 70
     0
300
1/32" = 1'-0"
140
0.03125
141
12.0
290
     0
  0
SCALE
  5
5C
102
{ACAD_REACTORS
330
47
102
}
330
47
100
AcDbScale
 70
     0
300
1/16" = 1'-0"
140
0.0625
141
12.0
290
     0
  0
SCALE
  5
5D
102
{ACAD_REACTORS
330
47
102
}
330
47
100
AcDbScale
 70
     0
300
3/32" = 1'-0"
140
0.09375
141
12.0
290
     0
  0
SCALE
  5
5E
102
{ACAD_REACTORS
330
47
102
}
330
47
100
AcDbScale
 70
     0
300
1/8" = 1'-0"
140
0.125
141
12.0
290
     0
  0
SCALE
  5
5F
102
{ACAD_REACTORS
330
47
102
}
330
47
100
AcDbScale
 70
     0
300
3/16" = 1'-0"
140
0.1875
141
12.0
290
     0
  0
SCALE
  5
60
102
{ACAD_REACTORS
330
47
102
}
330
47
100
AcDbScale
 70
     0
300
1/4" = 1'-0"
140
0.25
141
12.0
290
     0
  0
SCALE
  5
61
102
{ACAD_REACTORS
330
47
102
}
330
47
100
AcDbScale
 70
     0
300
3/8" = 1'-0"
140
0.375
141
12.0
290
     0
  0
SCALE
  5
62
102
{ACAD_REACTORS
330
47
102
}
330
47
100
AcDbScale
 70
     0
300
1/2" = 1'-0"
140
0.5
141
12.0
290
     0
  0
SCALE
  5
63
102
{ACAD_REACTORS
330
47
102
}
330
47
100
AcDbScale
 70
     0
300
3/4" = 1'-0"
140
0.75
141
12.0
290
     0
  0
SCALE
  5
64
102
{ACAD_REACTORS
330
47
102
}
330
47
100
AcDbScale
 70
     0
300
1" = 1'-0"
140
1.0
141
12.0
290
     0
  0
SCALE
  5
65
102
{ACAD_REACTORS
330
47
102
}
330
47
100
AcDbScale
 70
     0
300
1-1/2" = 1'-0"
140
1.5
141
12.0
290
     0
  0
SCALE
  5
66
102
{ACAD_REACTORS
330
47
102
}
330
47
100
AcDbScale
 70
     0
300
3" = 1'-0"
140
3.0
141
12.0
290
     0
  0
SCALE
  5
67
102
{ACAD_REACTORS
330
47
102
}
330
47
100
AcDbScale
 70
     0
300
6" = 1'-0"
140
6.0
141
12.0
290
     0
  0
SCALE
  5
68
102
{ACAD_REACTORS
330
47
102
}
330
47
100
AcDbScale
 70
     0
300
1'-0" = 1'-0"
140
12.0
141
12.0
290
     0
  0
ENDSEC
  0
EOF
