  0
SECTION
  2
HEADER
  9
$ACADVER
  1
AC1015
  9
$ACADMAINTVER
 70
     6
  9
$DWGCODEPAGE
  3
ANSI_1252
  9
$INSBASE
 10
0.0
 20
0.0
 30
0.0
  9
$EXTMIN
 10
0.0
 20
0.0
 30
0.0
  9
$EXTMAX
 10
3000.0
 20
2000.0
 30
0.0
  9
$LIMMIN
 10
0.0
 20
0.0
  9
$LIMMAX
 10
3000.0
 20
2000.0
  9
$ORTHOMODE
 70
     0
  9
$REGENMODE
 70
     1
  9
$FILLMODE
 70
     1
  9
$QTEXTMODE
 70
     0
  9
$MIRRTEXT
 70
     1
  9
$LTSCALE
 40
1.0
  9
$ATTMODE
 70
     1
  9
$TEXTSIZE
 40
2.5
  9
$TRACEWID
 40
1.0
  9
$TEXTSTYLE
  7
Standard
  9
$CLAYER
  8
0
  9
$CELTYPE
  6
ByLayer
  9
$CECOLOR
 62
   256
  9
$CELTSCALE
 40
1.0
  9
$DISPSILH
 70
     0
  9
$DIMSCALE
 40
1.0
  9
$DIMASZ
 40
2.5
  9
$DIMEXO
 40
1.0
  9
$DIMDLI
 40
3.75
  9
$DIMRND
 40
0.0
  9
$DIMDLE
 40
0.0
  9
$DIMEXE
 40
1.0
  9
$DIMTP
 40
0.0
  9
$DIMTM
 40
0.0
  9
$DIMTXT
 40
2.5
  9
$DIMCEN
 40
2.5
  9
$DIMTSZ
 40
0.0
  9
$DIMTOL
 70
     0
  9
$DIMLIM
 70
     0
  9
$DIMTIH
 70
     1
  9
$DIMTOH
 70
     1
  9
$DIMSE1
 70
     0
  9
$DIMSE2
 70
     0
  9
$DIMTAD
 70
     1
  9
$DIMZIN
 70
     0
  9
$DIMBLK
  1

  9
$DIMASO
 70
     1
  9
$DIMSHO
 70
     1
  9
$DIMPOST
  1

  9
$DIMAPOST
  1

  9
$DIMALT
 70
     0
  9
$DIMALTD
 70
     3
  9
$DIMALTF
 40
0.0393700787
  9
$DIMLFAC
 40
20.0
  9
$DIMTOFL
 70
     1
  9
$DIMTVP
 40
0.0
  9
$DIMTIX
 70
     0
  9
$DIMSOXD
 70
     0
  9
$DIMSAH
 70
     0
  9
$DIMBLK1
  1

  9
$DIMBLK2
  1

  9
$DIMSTYLE
  2
ISO-25
  9
$DIMCLRD
 70
     0
  9
$DIMCLRE
 70
     0
  9
$DIMCLRT
 70
     0
  9
$DIMTFAC
 40
1.0
  9
$DIMGAP
 40
1.5
  9
$DIMJUST
 70
     0
  9
$DIMSD1
 70
     0
  9
$DIMSD2
 70
     0
  9
$DIMTOLJ
 70
     0
  9
$DIMTZIN
 70
     0
  9
$DIMALTZ
 70
     0
  9
$DIMALTTZ
 70
     0
  9
$DIMUPT
 70
     0
  9
$DIMDEC
 70
     2
  9
$DIMTDEC
 70
     2
  9
$DIMALTU
 70
     2
  9
$DIMALTTD
 70
     3
  9
$DIMTXSTY
  7
Standard
  9
$DIMAUNIT
 70
     0
  9
$DIMADEC
 70
     0
  9
$DIMALTRND
 40
0.0
  9
$DIMAZIN
 70
     0
  9
$DIMDSEP
 70
    44
  9
$DIMATFIT
 70
     3
  9
$DIMFRAC
 70
     0
  9
$DIMLDRBLK
  1

  9
$DIMLUNIT
 70
     2
  9
$DIMLWD
 70
    -2
  9
$DIMLWE
 70
    -2
  9
$DIMTMOVE
 70
     0
  9
$LUNITS
 70
     2
  9
$LUPREC
 70
     2
  9
$SKETCHINC
 40
1.0
  9
$FILLETRAD
 40
10.0
  9
$AUNITS
 70
     0
  9
$AUPREC
 70
     0
  9
$MENU
  1
.
  9
$ELEVATION
 40
0.0
  9
$PELEVATION
 40
0.0
  9
$THICKNESS
 40
0.0
  9
$LIMCHECK
 70
     0
  9
$CHAMFERA
 40
0.0
  9
$CHAMFERB
 40
0.0
  9
$CHAMFERC
 40
0.0
  9
$CHAMFERD
 40
0.0
  9
$SKPOLY
 70
     0
  9
$TDCREATE
 40
2457077.488774433
  9
$TDUCREATE
 40
2457077.488774433
  9
$TDUPDATE
 40
2457077.488776285
  9
$TDUUPDATE
 40
2457077.488776285
  9
$TDINDWG
 40
0.0000000116
  9
$TDUSRTIMER
 40
0.0000000116
  9
$USRTIMER
 70
     1
  9
$ANGBASE
 50
0.0
  9
$ANGDIR
 70
     0
  9
$PDMODE
 70
     0
  9
$PDSIZE
 40
-1.0
  9
$PLINEWID
 40
0.0
  9
$SPLFRAME
 70
     0
  9
$SPLINETYPE
 70
     6
  9
$SPLINESEGS
 70
     8
  9
$HANDSEED
  5
45C
  9
$SURFTAB1
 70
     6
  9
$SURFTAB2
 70
     6
  9
$SURFTYPE
 70
     6
  9
$SURFU
 70
     6
  9
$SURFV
 70
     6
  9
$UCSBASE
  2

  9
$UCSNAME
  2

  9
$UCSORG
 10
0.0
 20
0.0
 30
0.0
  9
$UCSXDIR
 10
1.0
 20
0.0
 30
0.0
  9
$UCSYDIR
 10
0.0
 20
1.0
 30
0.0
  9
$UCSORTHOREF
  2

  9
$UCSORTHOVIEW
 70
     0
  9
$UCSORGTOP
 10
0.0
 20
0.0
 30
0.0
  9
$UCSORGBOTTOM
 10
0.0
 20
0.0
 30
0.0
  9
$UCSORGLEFT
 10
0.0
 20
0.0
 30
0.0
  9
$UCSORGRIGHT
 10
0.0
 20
0.0
 30
0.0
  9
$UCSORGFRONT
 10
0.0
 20
0.0
 30
0.0
  9
$UCSORGBACK
 10
0.0
 20
0.0
 30
0.0
  9
$PUCSBASE
  2

  9
$PUCSNAME
  2

  9
$PUCSORG
 10
0.0
 20
0.0
 30
0.0
  9
$PUCSXDIR
 10
1.0
 20
0.0
 30
0.0
  9
$PUCSYDIR
 10
0.0
 20
1.0
 30
0.0
  9
$PUCSORTHOREF
  2

  9
$PUCSORTHOVIEW
 70
     0
  9
$PUCSORGTOP
 10
0.0
 20
0.0
 30
0.0
  9
$PUCSORGBOTTOM
 10
0.0
 20
0.0
 30
0.0
  9
$PUCSORGLEFT
 10
0.0
 20
0.0
 30
0.0
  9
$PUCSORGRIGHT
 10
0.0
 20
0.0
 30
0.0
  9
$PUCSORGFRONT
 10
0.0
 20
0.0
 30
0.0
  9
$PUCSORGBACK
 10
0.0
 20
0.0
 30
0.0
  9
$USERI1
 70
     0
  9
$USERI2
 70
     0
  9
$USERI3
 70
     0
  9
$USERI4
 70
     0
  9
$USERI5
 70
     0
  9
$USERR1
 40
0.0
  9
$USERR2
 40
0.0
  9
$USERR3
 40
0.0
  9
$USERR4
 40
0.0
  9
$USERR5
 40
0.0
  9
$WORLDVIEW
 70
     1
  9
$SHADEDGE
 70
     3
  9
$SHADEDIF
 70
    70
  9
$TILEMODE
 70
     1
  9
$MAXACTVP
 70
    64
  9
$PINSBASE
 10
0.0
 20
0.0
 30
0.0
  9
$PLIMCHECK
 70
     0
  9
$PEXTMIN
 10
1.0000000000E+20
 20
1.0000000000E+20
 30
1.0000000000E+20
  9
$PEXTMAX
 10
-1.0000000000E+20
 20
-1.0000000000E+20
 30
-1.0000000000E+20
  9
$PLIMMIN
 10
0.0
 20
0.0
  9
$PLIMMAX
 10
420.0
 20
297.0
  9
$UNITMODE
 70
     0
  9
$VISRETAIN
 70
     1
  9
$PLINEGEN
 70
     0
  9
$PSLTSCALE
 70
     1
  9
$TREEDEPTH
 70
  3020
  9
$CMLSTYLE
  2
Standard
  9
$CMLJUST
 70
     0
  9
$CMLSCALE
 40
20.0
  9
$PROXYGRAPHICS
 70
     1
  9
$MEASUREMENT
 70
     1
  9
$CELWEIGHT
370
    -1
  9
$ENDCAPS
280
     0
  9
$JOINSTYLE
280
     0
  9
$LWDISPLAY
290
     1
  9
$INSUNITS
 70
     4
  9
$HYPERLINKBASE
  1

  9
$STYLESHEET
  1

  9
$XEDIT
290
     1
  9
$CEPSNTYPE
380
     0
  9
$PSTYLEMODE
290
     1
  9
$FINGERPRINTGUID
  2
{407506E6-F002-4A65-9E42-A12E228388B6}
  9
$VERSIONGUID
  2
{FAEB1C32-E019-11D5-929B-00C0DF256EC4}
  9
$EXTNAMES
290
     1
  9
$PSVPSCALE
 40
0.0
  9
$OLESTARTUP
290
     0
  0
ENDSEC
  0
SECTION
  2
CLASSES
  0
CLASS
  1
ACDBDICTIONARYWDFLT
  2
AcDbDictionaryWithDefault
  3
ObjectDBX Classes
 90
        0
280
     0
281
     0
  0
CLASS
  1
VISUALSTYLE
  2
AcDbVisualStyle
  3
ObjectDBX Classes
 90
     4095
280
     0
281
     0
  0
CLASS
  1
MATERIAL
  2
AcDbMaterial
  3
ObjectDBX Classes
 90
     1153
280
     0
281
     0
  0
CLASS
  1
SCALE
  2
AcDbScale
  3
ObjectDBX Classes
 90
     1153
280
     0
281
     0
  0
CLASS
  1
SUN
  2
AcDbSun
  3
SCENEOE
 90
     1153
280
     0
281
     0
  0
CLASS
  1
ACDBPLACEHOLDER
  2
AcDbPlaceHolder
  3
ObjectDBX Classes
 90
        0
280
     0
281
     0
  0
CLASS
  1
LAYOUT
  2
AcDbLayout
  3
ObjectDBX Classes
 90
        0
280
     0
281
     0
  0
ENDSEC
  0
SECTION
  2
TABLES
  0
TABLE
  2
VPORT
  5
8
330
0
100
AcDbSymbolTable
 70
     1
  0
VPORT
  5
29
330
8
100
AcDbSymbolTableRecord
100
AcDbViewportTableRecord
  2
*Active
 70
     0
 10
0.0
 20
0.0
 11
1.0
 21
1.0
 12
1500.0
 22
1000.0
 13
0.0
 23
0.0
 14
10.0
 24
10.0
 15
10.0
 25
10.0
 16
0.0
 26
0.0
 36
1.0
 17
0.0
 27
0.0
 37
0.0
 40
2000.0
 41
1.5
 42
50.0
 43
0.0
 44
0.0
 50
0.0
 51
0.0
 71
     0
 72
  2000
 73
     1
 74
     3
 75
     0
 76
     0
 77
     0
 78
     0
281
     0
 65
     1
110
0.0
120
0.0
130
0.0
111
1.0
121
0.0
131
0.0
112
0.0
122
1.0
132
0.0
 79
     0
146
0.0
  0
ENDTAB
  0
TABLE
  2
LTYPE
  5
5
330
0
100
AcDbSymbolTable
 70
     6
  0
LTYPE
  5
14
330
5
100
AcDbSymbolTableRecord
100
AcDbLinetypeTableRecord
  2
ByBlock
 70
     0
  3

 72
    65
 73
     0
 40
0.0
  0
LTYPE
  5
15
330
5
100
AcDbSymbolTableRecord
100
AcDbLinetypeTableRecord
  2
ByLayer
 70
     0
  3

 72
    65
 73
     0
 40
0.0
  0
LTYPE
  5
16
330
5
100
AcDbSymbolTableRecord
100
AcDbLinetypeTableRecord
  2
Continuous
 70
     0
  3
Solid line
 72
    65
 73
     0
 40
0.0
  0
LTYPE
  5
6A
330
5
100
AcDbSymbolTableRecord
100
AcDbLinetypeTableRecord
  2
HIDDEN
 70
     0
  3
Hidden __ __ __ __ __ __ __ __ __ __ __ __ __ __
 72
    65
 73
     2
 40
1.905
 49
1.27
 74
     0
 49
-0.635
 74
     0
  0
LTYPE
  5
6B
330
5
100
AcDbSymbolTableRecord
100
AcDbLinetypeTableRecord
  2
PHANTOM
 70
     0
  3
Phantom ______  __  __  ______  __  __  ______
 72
    65
 73
     6
 40
12.7
 49
6.35
 74
     0
 49
-1.27
 74
     0
 49
1.27
 74
     0
 49
-1.27
 74
     0
 49
1.27
 74
     0
 49
-1.27
 74
     0
  0
LTYPE
  5
6C
330
5
100
AcDbSymbolTableRecord
100
AcDbLinetypeTableRecord
  2
CENTER
 70
     0
  3
Center ____ _ ____ _ ____ _ ____ _ ____ _ ____
 72
    65
 73
     4
 40
10.16
 49
6.35
 74
     0
 49
-1.27
 74
     0
 49
1.27
 74
     0
 49
-1.27
 74
     0
  0
LTYPE
  5
6D
330
5
100
AcDbSymbolTableRecord
100
AcDbLinetypeTableRecord
  2
CENTERX2
 70
     0
  3
Center (2x) ________  __  ________  __  _____
 72
    65
 73
     4
 40
20.32
 49
12.7
 74
     0
 49
-2.54
 74
     0
 49
2.54
 74
     0
 49
-2.54
 74
     0
  0
LTYPE
  5
6E
330
5
100
AcDbSymbolTableRecord
100
AcDbLinetypeTableRecord
  2
DOT2
 70
     0
  3
Dot (.5x) ........................................
 72
    65
 73
     2
 40
0.635
 49
0.0
 74
     0
 49
-0.635
 74
     0
  0
ENDTAB
  0
TABLE
  2
LAYER
  5
2
330
0
100
AcDbSymbolTable
 70
     2
  0
LAYER
  5
10
330
2
100
AcDbSymbolTableRecord
100
AcDbLayerTableRecord
  2
0
 70
     0
 62
     7
  6
Continuous
370
    -3
390
F
  0
LAYER
  5
6F
330
2
100
AcDbSymbolTableRecord
100
AcDbLayerTableRecord
  2
FORMAT
 70
     0
 62
     7
  6
Continuous
370
    -3
390
F
  0
ENDTAB
  0
TABLE
  2
STYLE
  5
3
330
0
100
AcDbSymbolTable
 70
     2
  0
STYLE
  5
11
330
3
100
AcDbSymbolTableRecord
100
AcDbTextStyleTableRecord
  2
Standard
 70
     0
 40
0.0
 41
1.0
 50
0.0
 71
     0
 42
2.5
  3
txt
  4

  0
STYLE
  5
338
330
3
100
AcDbSymbolTableRecord
100
AcDbTextStyleTableRecord
  2
SLDTEXTSTYLE0
 70
     0
 40
0.0
 41
0.7
 50
0.0
 71
     0
 42
2.5
  3
TXT
  4

  0
ENDTAB
  0
TABLE
  2
VIEW
  5
6
330
0
100
AcDbSymbolTable
 70
     0
  0
ENDTAB
  0
TABLE
  2
UCS
  5
7
330
0
100
AcDbSymbolTable
 70
     0
  0
ENDTAB
  0
TABLE
  2
APPID
  5
9
330
0
100
AcDbSymbolTable
 70
     1
  0
APPID
  5
12
330
9
100
AcDbSymbolTableRecord
100
AcDbRegAppTableRecord
  2
ACAD
 70
     0
  0
ENDTAB
  0
TABLE
  2
DIMSTYLE
  5
A
330
0
100
AcDbSymbolTable
 70
     1
100
AcDbDimStyleTable
  0
DIMSTYLE
105
27
330
A
100
AcDbSymbolTableRecord
100
AcDbDimStyleTableRecord
  2
ISO-25
 70
     0
 41
2.5
 42
0.625
 43
3.75
 44
1.25
 73
     0
 74
     0
 77
     1
 78
     8
140
2.5
141
2.5
143
0.0393700787
147
0.625
171
     3
172
     1
178
     0
271
     2
272
     2
274
     3
278
    44
283
     0
284
     8
340
11
  0
ENDTAB
  0
TABLE
  2
BLOCK_RECORD
  5
1
330
0
100
AcDbSymbolTable
 70
     1
  0
BLOCK_RECORD
  5
1F
330
1
100
AcDbSymbolTableRecord
100
AcDbBlockTableRecord
  2
*Model_Space
340
22
  0
BLOCK_RECORD
  5
1B
330
1
100
AcDbSymbolTableRecord
100
AcDbBlockTableRecord
  2
*Paper_Space
340
1E
  0
BLOCK_RECORD
  5
23
330
1
100
AcDbSymbolTableRecord
100
AcDbBlockTableRecord
  2
*Paper_Space0
340
26
  0
ENDTAB
  0
ENDSEC
  0
SECTION
  2
BLOCKS
  0
BLOCK
  5
20
330
1F
100
AcDbEntity
  8
0
100
AcDbBlockBegin
  2
*Model_Space
 70
     0
 10
0.0
 20
0.0
 30
0.0
  3
*Model_Space
  1
*Model_Space
  0
ENDBLK
  5
21
330
1F
100
AcDbEntity
  8
0
100
AcDbBlockEnd
  0
BLOCK
  5
1C
330
1B
100
AcDbEntity
 67
     1
  8
0
100
AcDbBlockBegin
  2
*Paper_Space
 70
     0
 10
0.0
 20
0.0
 30
0.0
  3
*Paper_Space
  1
*Paper_Space
  0
ENDBLK
  5
1D
330
1B
100
AcDbEntity
 67
     1
  8
0
100
AcDbBlockEnd
  0
BLOCK
  5
24
330
23
100
AcDbEntity
  8
0
100
AcDbBlockBegin
  2
*Paper_Space0
 70
     0
 10
0.0
 20
0.0
 30
0.0
  3
*Paper_Space0
  1
*Paper_Space0
  0
ENDBLK
  5
25
330
23
100
AcDbEntity
  8
0
100
AcDbBlockEnd
  0
ENDSEC
  0
SECTION
  2
ENTITIES
  0
SPLINE
  5
70
330
1F
100
AcDbEntity
  8
0
  6
Continuous
 62
     7
370
    40
100
AcDbSpline
210
0.0
220
0.0
230
1.0
 70
     8
 71
     3
 72
    14
 73
    10
 74
     0
 42
0.000000001
 43
0.00000001
 40
0.0
 40
0.0
 40
0.0
 40
0.0
 40
0.1082482162986719
 40
0.2721253080805228
 40
0.4287104794696744
 40
0.5766727888379317
 40
0.7174711806296455
 40
0.8561093750298623
 40
1.0
 40
1.0
 40
1.0
 40
1.0
 10
668.5327523119187
 20
805.0119304149591
 30
0.0
 10
671.2056807147042
 20
803.7943689027778
 30
0.0
 10
677.9251583186427
 20
800.733539699873
 30
0.0
 10
688.864285731578
 20
796.7460520413928
 30
0.0
 10
701.0276989352551
 20
793.049365983106
 30
0.0
 10
712.8067582717003
 20
790.317939060878
 30
0.0
 10
724.2562434565489
 20
788.4518233063412
 30
0.0
 10
735.6957322903543
 20
787.3120585377765
 30
0.0
 10
743.3616020652589
 20
787.1794581818608
 30
0.0
 10
747.2657941944336
 20
787.1119254320108
 30
0.0
  0
SPLINE
  5
71
330
1F
100
AcDbEntity
  8
0
  6
Continuous
 62
     7
370
    40
100
AcDbSpline
210
0.0
220
0.0
230
1.0
 70
     8
 71
     3
 72
    15
 73
    11
 74
     0
 42
0.000000001
 43
0.00000001
 40
0.0
 40
0.0
 40
0.0
 40
0.0
 40
0.1367088861526631
 40
0.2614201350259992
 40
0.3793133196931118
 40
0.4937730602733709
 40
0.6050995019367197
 40
0.7154909620866049
 40
0.854309056072619
 40
1.0
 40
1.0
 40
1.0
 40
1.0
 10
826.6312329761123
 20
787.1119254320108
 30
0.0
 10
830.3559926113045
 20
787.1726452229368
 30
0.0
 10
837.4786251933881
 20
787.2887560068762
 30
0.0
 10
847.7764169269905
 20
788.2419514073315
 30
0.0
 10
857.403432063725
 20
789.6579928896056
 30
0.0
 10
866.5815732407596
 20
791.5274902586987
 30
0.0
 10
875.45721647093
 20
793.7981798219103
 30
0.0
 10
884.8470698599235
 20
796.6854303420969
 30
0.0
 10
894.9804439451387
 20
800.3196111932867
 30
0.0
 10
902.084323844091
 20
803.4228359345528
 30
0.0
 10
905.7220675713753
 20
805.0119304149591
 30
0.0
  0
LINE
  5
72
330
1F
100
AcDbEntity
  8
0
  6
Continuous
 62
     7
370
    40
100
AcDbLine
 10
754.8856668837
 20
784.6328639477
 30
0.0
 11
759.6538782782
 21
757.5909816711
 31
0.0
  0
LINE
  5
73
330
1F
100
AcDbEntity
  8
0
  6
Continuous
 62
     7
370
    40
100
AcDbLine
 10
814.2432001151
 20
757.5909816711
 30
0.0
 11
819.0114147692
 21
784.6328639477
 31
0.0
  0
ARC
  5
74
330
1F
100
AcDbEntity
  8
0
  6
Continuous
 62
     7
370
    40
100
AcDbCircle
 10
803.94853924
 20
769.268387856
 30
0.0
 40
3.000000000000044
100
AcDbArc
 50
270.0591490505
 51
0.0
  0
LINE
  5
75
330
1F
100
AcDbEntity
  8
0
  6
Continuous
 62
     7
370
    40
100
AcDbLine
 10
803.9485391892
 20
766.2683897703
 30
0.0
 11
803.9516367681
 21
766.2683897703
 31
0.0
  0
LINE
  5
76
330
1F
100
AcDbEntity
  8
0
  6
Continuous
 62
     7
370
    40
100
AcDbLine
 10
769.9421764083
 20
766.2683897703
 30
0.0
 11
769.9485392041
 21
766.2683897703
 31
0.0
  0
ARC
  5
77
330
1F
100
AcDbEntity
  8
0
  6
Continuous
 62
     7
370
    40
100
AcDbCircle
 10
769.94853924
 20
769.268387856
 30
0.0
 40
3.000000000000005
100
AcDbArc
 50
180.0
 51
269.8785057303
  0
LINE
  5
78
330
1F
100
AcDbEntity
  8
0
  6
Continuous
 62
     7
370
    40
100
AcDbLine
 10
803.4218613721
 20
766.2683897703
 30
0.0
 11
803.9485391892
 21
766.2683897703
 31
0.0
  0
LINE
  5
79
330
1F
100
AcDbEntity
  8
0
  6
Continuous
 62
     7
370
    40
100
AcDbLine
 10
769.9485392041
 20
766.2683897703
 30
0.0
 11
770.4752170212
 21
766.2683897703
 31
0.0
  0
ARC
  5
7A
330
1F
100
AcDbEntity
  8
0
  6
Continuous
 62
     7
370
    40
100
AcDbCircle
 10
811.2887769638
 20
758.1119237631
 30
0.0
 40
2.999999999999979
100
AcDbArc
 50
270.0
 51
350.0
  0
ARC
  5
7B
330
1F
100
AcDbEntity
  8
0
  6
Continuous
 62
     7
370
    40
100
AcDbCircle
 10
762.6083015162
 20
758.1119237631
 30
0.0
 40
2.999999999999979
100
AcDbArc
 50
190.0
 51
270.0
  0
ARC
  5
7C
330
1F
100
AcDbEntity
  8
0
  6
Continuous
 62
     7
370
    40
100
AcDbCircle
 10
821.9658381335
 20
784.1119237631
 30
0.0
 40
3.0
100
AcDbArc
 50
90.0
 51
170.0
  0
ARC
  5
7D
330
1F
100
AcDbEntity
  8
0
  6
Continuous
 62
     7
370
    40
100
AcDbCircle
 10
751.9312403465
 20
784.1119237631
 30
0.0
 40
3.0
100
AcDbArc
 50
10.0
 51
90.0
  0
SPLINE
  5
7E
330
1F
100
AcDbEntity
  8
0
  6
Continuous
 62
     7
370
    40
100
AcDbSpline
210
0.0
220
0.0
230
1.0
 70
     8
 71
     3
 72
    14
 73
    10
 74
     0
 42
0.000000001
 43
0.00000001
 40
0.0
 40
0.0
 40
0.0
 40
0.0
 40
0.1082482347084061
 40
0.2721251827338337
 40
0.428710468417126
 40
0.5766726245637871
 40
0.717470949947993
 40
0.8561092590530609
 40
1.0
 40
1.0
 40
1.0
 40
1.0
 10
1333.532773769591
 20
805.0119304149591
 30
0.0
 10
1336.20570228799
 20
803.794369227067
 30
0.0
 10
1342.925175944657
 20
800.7335427698293
 30
0.0
 10
1353.86429799711
 20
796.7460469642493
 30
0.0
 10
1366.027706635293
 20
793.0493701786696
 30
0.0
 10
1377.806759458675
 20
790.3179377768647
 30
0.0
 10
1389.256239996736
 20
788.4518223836484
 30
0.0
 10
1400.695731419849
 20
787.3120586578636
 30
0.0
 10
1408.361606142719
 20
787.1794582219139
 30
0.0
 10
1412.265800750944
 20
787.1119254320108
 30
0.0
  0
SPLINE
  5
7F
330
1F
100
AcDbEntity
  8
0
  6
Continuous
 62
     7
370
    40
100
AcDbSpline
210
0.0
220
0.0
230
1.0
 70
     8
 71
     3
 72
    15
 73
    11
 74
     0
 42
0.000000001
 43
0.00000001
 40
0.0
 40
0.0
 40
0.0
 40
0.0
 40
0.136708555907494
 40
0.2614203269997148
 40
0.3793133539179638
 40
0.4937734072943832
 40
0.6050995398919297
 40
0.7154909565352868
 40
0.8543093078491413
 40
1.0
 40
1.0
 40
1.0
 40
1.0
 10
1491.631233013365
 20
787.1119254320108
 30
0.0
 10
1495.355983556898
 20
787.1726462285575
 30
0.0
 10
1502.478621190067
 20
787.2887593012438
 30
0.0
 10
1512.776414801474
 20
788.2419463457563
 30
0.0
 10
1522.40344686599
 20
789.6579985215819
 30
0.0
 10
1531.581586538249
 20
791.5274823747424
 30
0.0
 10
1540.457225915746
 20
793.7981836081939
 30
0.0
 10
1549.847075922693
 20
796.6854348945777
 30
0.0
 10
1559.980454314772
 20
800.3196015122555
 30
0.0
 10
1567.08433096909
 20
803.4228344926752
 30
0.0
 10
1570.722066677306
 20
805.0119304149591
 30
0.0
  0
LINE
  5
80
330
1F
100
AcDbEntity
  8
0
  6
Continuous
 62
     7
370
    40
100
AcDbLine
 10
1419.885658539
 20
784.6328639477
 30
0.0
 11
1424.6538513071
 21
757.5909816711
 31
0.0
  0
LINE
  5
81
330
1F
100
AcDbEntity
  8
0
  6
Continuous
 62
     7
370
    40
100
AcDbLine
 10
1479.2431824572
 20
757.5909816711
 30
0.0
 11
1484.0114348299
 21
784.6328639477
 31
0.0
  0
LINE
  5
82
330
1F
100
AcDbEntity
  8
0
  6
Continuous
 62
     7
370
    40
100
AcDbLine
 10
1468.4218399889
 20
766.2683897703
 30
0.0
 11
1468.9485662348
 21
766.2683897703
 31
0.0
  0
LINE
  5
83
330
1F
100
AcDbEntity
  8
0
  6
Continuous
 62
     7
370
    40
100
AcDbLine
 10
1434.9485271342
 20
766.2683897703
 30
0.0
 11
1435.4751937754
 21
766.2683897703
 31
0.0
  0
ARC
  5
84
330
1F
100
AcDbEntity
  8
0
  6
Continuous
 62
     7
370
    40
100
AcDbCircle
 10
1468.94853924
 20
769.268387856
 30
0.0
 40
3.000000000000044
100
AcDbArc
 50
270.0591490504
 51
0.0
  0
LINE
  5
85
330
1F
100
AcDbEntity
  8
0
  6
Continuous
 62
     7
370
    40
100
AcDbLine
 10
1468.9485662348
 20
766.2683897703
 30
0.0
 11
1468.9516656763
 21
766.2683897703
 31
0.0
  0
LINE
  5
86
330
1F
100
AcDbEntity
  8
0
  6
Continuous
 62
     7
370
    40
100
AcDbLine
 10
1434.9421494372
 20
766.2683897703
 30
0.0
 11
1434.9485271342
 21
766.2683897703
 31
0.0
  0
ARC
  5
87
330
1F
100
AcDbEntity
  8
0
  6
Continuous
 62
     7
370
    40
100
AcDbCircle
 10
1434.94853924
 20
769.268387856
 30
0.0
 40
3.000000000000005
100
AcDbArc
 50
180.0
 51
269.8785057303
  0
ARC
  5
88
330
1F
100
AcDbEntity
  8
0
  6
Continuous
 62
     7
370
    40
100
AcDbCircle
 10
1476.2887769638
 20
758.1119237631
 30
0.0
 40
3.000000000000091
100
AcDbArc
 50
270.0
 51
350.0
  0
ARC
  5
89
330
1F
100
AcDbEntity
  8
0
  6
Continuous
 62
     7
370
    40
100
AcDbCircle
 10
1427.6083015162
 20
758.1119237631
 30
0.0
 40
3.000000000000091
100
AcDbArc
 50
190.0
 51
270.0
  0
ARC
  5
8A
330
1F
100
AcDbEntity
  8
0
  6
Continuous
 62
     7
370
    40
100
AcDbCircle
 10
1486.9658381335
 20
784.1119237631
 30
0.0
 40
3.000000000000111
100
AcDbArc
 50
90.0
 51
170.0
  0
ARC
  5
8B
330
1F
100
AcDbEntity
  8
0
  6
Continuous
 62
     7
370
    40
100
AcDbCircle
 10
1416.9312403465
 20
784.1119237631
 30
0.0
 40
3.000000000000111
100
AcDbArc
 50
10.0
 51
90.0
  0
ARC
  5
8C
330
1F
100
AcDbEntity
  8
0
  6
Continuous
 62
     7
370
    40
100
AcDbCircle
 10
353.42853924
 20
800.8519237631
 30
0.0
 40
4.260000000000063
100
AcDbArc
 50
0.0
 51
52.1776591166
  0
ARC
  5
8D
330
1F
100
AcDbEntity
  8
0
  6
Continuous
 62
     7
370
    40
100
AcDbCircle
 10
299.46853924
 20
800.8519237631
 30
0.0
 40
4.260000000000097
100
AcDbArc
 50
127.8223408834
 51
180.0
  0
ARC
  5
8E
330
1F
100
AcDbEntity
  8
0
  6
Continuous
 62
     7
370
    40
100
AcDbCircle
 10
352.71853924
 20
800.8519237631
 30
0.0
 40
4.969999999999914
100
AcDbArc
 50
311.8103148958
 51
0.0
  0
ARC
  5
8F
330
1F
100
AcDbEntity
  8
0
  6
Continuous
 62
     7
370
    40
100
AcDbCircle
 10
300.17853924
 20
800.8519237631
 30
0.0
 40
4.969999999999914
100
AcDbArc
 50
180.0
 51
228.1896851042
  0
ARC
  5
90
330
1F
100
AcDbEntity
  8
0
  6
Continuous
 62
     7
370
    40
100
AcDbCircle
 10
296.5496353361
 20
804.6119237631
 30
0.0
 40
0.5000000000000115
100
AcDbArc
 50
307.8223408834
 51
90.0
  0
ARC
  5
91
330
1F
100
AcDbEntity
  8
0
  6
Continuous
 62
     7
370
    40
100
AcDbCircle
 10
356.3474431439
 20
804.6119237631
 30
0.0
 40
0.5000000000000115
100
AcDbArc
 50
90.0
 51
232.1776591166
  0
ARC
  5
92
330
1F
100
AcDbEntity
  8
0
  6
Continuous
 62
     7
370
    40
100
AcDbCircle
 10
374.01853924
 20
777.0377998027
 30
0.0
 40
26.98000000000008
100
AcDbArc
 50
131.8103148958
 51
180.0
  0
ARC
  5
93
330
1F
100
AcDbEntity
  8
0
  6
Continuous
 62
     7
370
    40
100
AcDbCircle
 10
278.87853924
 20
777.0377998027
 30
0.0
 40
26.98000000000012
100
AcDbArc
 50
0.0
 51
48.1896851042
  0
ARC
  5
94
330
1F
100
AcDbEntity
  8
0
  6
Continuous
 62
     7
370
    40
100
AcDbCircle
 10
348.6263083503
 20
757.8969237631
 30
0.0
 40
3.905000000000086
100
AcDbArc
 50
270.0
 51
22.3835237867
  0
ARC
  5
95
330
1F
100
AcDbEntity
  8
0
  6
Continuous
 62
     7
370
    40
100
AcDbCircle
 10
304.2707701297
 20
757.8969237631
 30
0.0
 40
3.905000000000086
100
AcDbArc
 50
157.6164762133
 51
270.0
  0
ARC
  5
96
330
1F
100
AcDbEntity
  8
0
  6
Continuous
 62
     7
370
    40
100
AcDbCircle
 10
306.56853924
 20
756.9506245948
 30
0.0
 40
6.389999999999999
100
AcDbArc
 50
146.796900802
 51
157.6164762133
  0
ARC
  5
97
330
1F
100
AcDbEntity
  8
0
  6
Continuous
 62
     7
370
    40
100
AcDbCircle
 10
346.32853924
 20
756.9506245948
 30
0.0
 40
6.389999999999951
100
AcDbArc
 50
22.3835237867
 51
33.203099198
  0
ARC
  5
98
330
1F
100
AcDbEntity
  8
0
  6
Continuous
 62
     7
370
    40
100
AcDbCircle
 10
347.44853924
 20
745.2349423774
 30
0.0
 40
4.500000000000744
100
AcDbArc
 50
0.0
 51
86.1924001848
  0
ARC
  5
99
330
1F
100
AcDbEntity
  8
0
  6
Continuous
 62
     7
370
    40
100
AcDbCircle
 10
305.44853924
 20
745.2349423774
 30
0.0
 40
4.500000000000741
100
AcDbArc
 50
93.8075998152
 51
180.0
  0
ARC
  5
9A
330
1F
100
AcDbEntity
  8
0
  6
Continuous
 62
     7
370
    40
100
AcDbCircle
 10
347.44853924
 20
745.2349423774
 30
0.0
 40
4.500000000000057
100
AcDbArc
 50
270.0
 51
0.0
  0
ARC
  5
9B
330
1F
100
AcDbEntity
  8
0
  6
Continuous
 62
     7
370
    40
100
AcDbCircle
 10
305.44853924
 20
745.2349423774
 30
0.0
 40
4.5
100
AcDbArc
 50
180.0
 51
270.0
  0
ARC
  5
9C
330
1F
100
AcDbEntity
  8
0
  6
Continuous
 62
     7
370
    40
100
AcDbCircle
 10
375.43853924
 20
776.0019237631
 30
0.0
 40
28.40000000000002
100
AcDbArc
 50
180.0
 51
213.203099198
  0
ARC
  5
9D
330
1F
100
AcDbEntity
  8
0
  6
Continuous
 62
     7
370
    40
100
AcDbCircle
 10
277.45853924
 20
776.0019237631
 30
0.0
 40
28.40000000000002
100
AcDbArc
 50
326.796900802
 51
0.0
  0
ARC
  5
9E
330
1F
100
AcDbEntity
  8
0
  6
Continuous
 62
     7
370
    40
100
AcDbCircle
 10
347.87353924
 20
752.0919237631
 30
0.0
 40
1.900000000000034
100
AcDbArc
 50
90.0
 51
180.0
  0
ARC
  5
9F
330
1F
100
AcDbEntity
  8
0
  6
Continuous
 62
     7
370
    40
100
AcDbCircle
 10
305.02353924
 20
752.0919237631
 30
0.0
 40
1.900000000000034
100
AcDbArc
 50
0.0
 51
90.0
  0
ARC
  5
A0
330
1F
100
AcDbEntity
  8
0
  6
Continuous
 62
     7
370
    40
100
AcDbCircle
 10
305.02353924
 20
751.6208154579
 30
0.0
 40
1.900000000000034
100
AcDbArc
 50
273.8075998157
 51
0.0
  0
ARC
  5
A1
330
1F
100
AcDbEntity
  8
0
  6
Continuous
 62
     7
370
    40
100
AcDbCircle
 10
347.87353924
 20
751.6208154579
 30
0.0
 40
1.900000000000034
100
AcDbArc
 50
180.0
 51
266.1924001843
  0
LINE
  5
A2
330
1F
100
AcDbEntity
  8
0
  6
Continuous
 62
     7
370
    40
100
AcDbLine
 10
305.4485552675
 20
740.7349371403
 30
0.0
 11
310.1830118067
 21
198.217468807
 31
0.0
  0
LINE
  5
A3
330
1F
100
AcDbEntity
  8
0
  6
Continuous
 62
     7
370
    40
100
AcDbLine
 10
342.7140646345
 20
198.217468807
 30
0.0
 11
347.448550976
 21
740.7349371403
 31
0.0
  0
LINE
  5
A4
330
1F
100
AcDbEntity
  8
0
  6
Continuous
 62
     7
370
    40
100
AcDbLine
 10
305.8585160143
 20
777.0378016918
 30
0.0
 11
305.8585160143
 21
776.0019176691
 31
0.0
  0
LINE
  5
A5
330
1F
100
AcDbEntity
  8
0
  6
Continuous
 62
     7
370
    40
100
AcDbLine
 10
347.0385306246
 20
776.0019176691
 30
0.0
 11
347.0385306246
 21
777.0378016918
 31
0.0
  0
LINE
  5
A6
330
1F
100
AcDbEntity
  8
0
  6
Continuous
 62
     7
370
    40
100
AcDbLine
 10
306.9235318072
 20
752.0919167488
 30
0.0
 11
306.9235318072
 21
751.6208165377
 31
0.0
  0
LINE
  5
A7
330
1F
100
AcDbEntity
  8
0
  6
Continuous
 62
     7
370
    40
100
AcDbLine
 10
345.9735446341
 20
751.6208165377
 30
0.0
 11
345.9735446341
 21
752.0919167488
 31
0.0
  0
ARC
  5
A8
330
1F
100
AcDbEntity
  8
0
  6
Continuous
 62
     7
370
    40
100
AcDbCircle
 10
311.94853924
 20
181.0697909875
 30
0.0
 40
3.500000000000057
100
AcDbArc
 50
105.2575232905
 51
180.0
  0
ARC
  5
A9
330
1F
100
AcDbEntity
  8
0
  6
Continuous
 62
     7
370
    40
100
AcDbCircle
 10
340.94853924
 20
181.0697909875
 30
0.0
 40
3.500000000000057
100
AcDbArc
 50
0.0
 51
74.7424767095
  0
LINE
  5
AA
330
1F
100
AcDbEntity
  8
0
  6
Continuous
 62
     7
370
    40
100
AcDbLine
 10
308.4485166437
 20
181.0698085516
 30
0.0
 11
308.4485166437
 21
180.7349496572
 31
0.0
  0
LINE
  5
AB
330
1F
100
AcDbEntity
  8
0
  6
Continuous
 62
     7
370
    40
100
AcDbLine
 10
344.4485299952
 20
180.7349496572
 30
0.0
 11
344.4485299952
 21
181.0698085516
 31
0.0
  0
ARC
  5
AC
330
1F
100
AcDbEntity
  8
0
  6
Continuous
 62
     7
370
    40
100
AcDbCircle
 10
340.94853924
 20
180.7349423774
 30
0.0
 40
3.500000000000057
100
AcDbArc
 50
270.0
 51
0.0
  0
ARC
  5
AD
330
1F
100
AcDbEntity
  8
0
  6
Continuous
 62
     7
370
    40
100
AcDbCircle
 10
311.94853924
 20
180.7349423774
 30
0.0
 40
3.500000000000057
100
AcDbArc
 50
180.0
 51
270.0
  0
ARC
  5
AE
330
1F
100
AcDbEntity
  8
0
  6
Continuous
 62
     7
370
    40
100
AcDbCircle
 10
340.7141373067
 20
198.2349423774
 30
0.0
 40
2.000000000000049
100
AcDbArc
 50
289.9865925295
 51
359.5
  0
ARC
  5
AF
330
1F
100
AcDbEntity
  8
0
  6
Continuous
 62
     7
370
    40
100
AcDbCircle
 10
312.1829411733
 20
198.2349423774
 30
0.0
 40
2.000000000000068
100
AcDbArc
 50
180.5
 51
250.0134074705
  0
ARC
  5
B0
330
1F
100
AcDbEntity
  8
0
  6
Continuous
 62
     7
370
    40
100
AcDbCircle
 10
343.44853924
 20
190.2349423774
 30
0.0
 40
6.000000000000058
100
AcDbArc
 50
180.0
 51
254.7424767095
  0
ARC
  5
B1
330
1F
100
AcDbEntity
  8
0
  6
Continuous
 62
     7
370
    40
100
AcDbCircle
 10
309.44853924
 20
190.2349423774
 30
0.0
 40
6.000000000000058
100
AcDbArc
 50
285.2575232905
 51
0.0
  0
ARC
  5
B2
330
1F
100
AcDbEntity
  8
0
  6
Continuous
 62
     7
370
    40
100
AcDbCircle
 10
343.44853924
 20
190.7167613429
 30
0.0
 40
6.000000000000057
100
AcDbArc
 50
109.9865925295
 51
180.0
  0
ARC
  5
B3
330
1F
100
AcDbEntity
  8
0
  6
Continuous
 62
     7
370
    40
100
AcDbCircle
 10
309.44853924
 20
190.7167613429
 30
0.0
 40
6.0
100
AcDbArc
 50
0.0
 51
70.0134074705
  0
ARC
  5
B4
330
1F
100
AcDbEntity
  8
0
  6
Continuous
 62
     7
370
    40
100
AcDbCircle
 10
340.9230215234
 20
176.7349423774
 30
0.0
 40
0.5000000000000278
100
AcDbArc
 50
90.0
 51
177.0
  0
ARC
  5
B5
330
1F
100
AcDbEntity
  8
0
  6
Continuous
 62
     7
370
    40
100
AcDbCircle
 10
311.9740569566
 20
176.7349423774
 30
0.0
 40
0.499999999999971
100
AcDbArc
 50
3.0
 51
90.0
  0
LINE
  5
B6
330
1F
100
AcDbEntity
  8
0
  6
Continuous
 62
     7
370
    40
100
AcDbLine
 10
312.4733798868
 20
176.7611079901
 30
0.0
 11
315.7529466517
 21
114.1826086729
 31
0.0
  0
LINE
  5
B7
330
1F
100
AcDbEntity
  8
0
  6
Continuous
 62
     7
370
    40
100
AcDbLine
 10
337.1440999872
 20
114.1826086729
 30
0.0
 11
340.4236965544
 21
176.7611079901
 31
0.0
  0
LINE
  5
B8
330
1F
100
AcDbEntity
  8
0
  6
Continuous
 62
     7
370
    40
100
AcDbLine
 10
315.4485457308
 20
190.7167607038
 30
0.0
 11
315.4485457308
 21
190.2349167555
 31
0.0
  0
LINE
  5
B9
330
1F
100
AcDbEntity
  8
0
  6
Continuous
 62
     7
370
    40
100
AcDbLine
 10
337.4485307104
 20
190.2349167555
 30
0.0
 11
337.4485307104
 21
190.7167607038
 31
0.0
  0
ARC
  5
BA
330
1F
100
AcDbEntity
  8
0
  6
Continuous
 62
     7
370
    40
100
AcDbCircle
 10
336.1454767992
 20
114.2349423774
 30
0.0
 40
1.000000000000056
100
AcDbArc
 50
270.0
 51
357.0
  0
ARC
  5
BB
330
1F
100
AcDbEntity
  8
0
  6
Continuous
 62
     7
370
    40
100
AcDbCircle
 10
316.7516016808
 20
114.2349423774
 30
0.0
 40
1.000000000000056
100
AcDbArc
 50
183.0
 51
270.0
  0
ARC
  5
BC
330
1F
100
AcDbEntity
  8
0
  6
Continuous
 62
     7
370
    40
100
AcDbCircle
 10
1938.71853924
 20
800.8519237631
 30
0.0
 40
4.970000000000255
100
AcDbArc
 50
311.8103148958
 51
0.0
  0
ARC
  5
BD
330
1F
100
AcDbEntity
  8
0
  6
Continuous
 62
     7
370
    40
100
AcDbCircle
 10
1886.17853924
 20
800.8519237631
 30
0.0
 40
4.970000000000027
100
AcDbArc
 50
180.0
 51
228.1896851042
  0
ARC
  5
BE
330
1F
100
AcDbEntity
  8
0
  6
Continuous
 62
     7
370
    40
100
AcDbCircle
 10
1939.42853924
 20
800.8519237631
 30
0.0
 40
4.260000000000218
100
AcDbArc
 50
0.0
 51
52.1776591166
  0
ARC
  5
BF
330
1F
100
AcDbEntity
  8
0
  6
Continuous
 62
     7
370
    40
100
AcDbCircle
 10
1885.46853924
 20
800.8519237631
 30
0.0
 40
4.260000000000097
100
AcDbArc
 50
127.8223408834
 51
180.0
  0
ARC
  5
C0
330
1F
100
AcDbEntity
  8
0
  6
Continuous
 62
     7
370
    40
100
AcDbCircle
 10
1882.5496353361
 20
804.6119237631
 30
0.0
 40
0.5
100
AcDbArc
 50
307.8223408834
 51
90.0
  0
ARC
  5
C1
330
1F
100
AcDbEntity
  8
0
  6
Continuous
 62
     7
370
    40
100
AcDbCircle
 10
1942.3474431439
 20
804.6119237631
 30
0.0
 40
0.5000000000000464
100
AcDbArc
 50
90.0
 51
232.1776591166
  0
ARC
  5
C2
330
1F
100
AcDbEntity
  8
0
  6
Continuous
 62
     7
370
    40
100
AcDbCircle
 10
1960.01853924
 20
777.0377998027
 30
0.0
 40
26.98000000000008
100
AcDbArc
 50
131.8103148958
 51
180.0
  0
ARC
  5
C3
330
1F
100
AcDbEntity
  8
0
  6
Continuous
 62
     7
370
    40
100
AcDbCircle
 10
1864.87853924
 20
777.0377998027
 30
0.0
 40
26.98000000000008
100
AcDbArc
 50
0.0
 51
48.1896851042
  0
ARC
  5
C4
330
1F
100
AcDbEntity
  8
0
  6
Continuous
 62
     7
370
    40
100
AcDbCircle
 10
1934.6263083503
 20
757.8969237631
 30
0.0
 40
3.905000000000086
100
AcDbArc
 50
270.0
 51
22.3835237867
  0
ARC
  5
C5
330
1F
100
AcDbEntity
  8
0
  6
Continuous
 62
     7
370
    40
100
AcDbCircle
 10
1890.2707701297
 20
757.8969237631
 30
0.0
 40
3.905000000000086
100
AcDbArc
 50
157.6164762133
 51
270.0
  0
ARC
  5
C6
330
1F
100
AcDbEntity
  8
0
  6
Continuous
 62
     7
370
    40
100
AcDbCircle
 10
1892.56853924
 20
756.9506245948
 30
0.0
 40
6.390000000000046
100
AcDbArc
 50
146.796900802
 51
157.6164762133
  0
ARC
  5
C7
330
1F
100
AcDbEntity
  8
0
  6
Continuous
 62
     7
370
    40
100
AcDbCircle
 10
1932.32853924
 20
756.9506245948
 30
0.0
 40
6.390000000000046
100
AcDbArc
 50
22.3835237867
 51
33.203099198
  0
ARC
  5
C8
330
1F
100
AcDbEntity
  8
0
  6
Continuous
 62
     7
370
    40
100
AcDbCircle
 10
1933.44853924
 20
745.2349423774
 30
0.0
 40
4.500000000000733
100
AcDbArc
 50
0.0
 51
86.1924001848
  0
ARC
  5
C9
330
1F
100
AcDbEntity
  8
0
  6
Continuous
 62
     7
370
    40
100
AcDbCircle
 10
1891.44853924
 20
745.2349423774
 30
0.0
 40
4.500000000000748
100
AcDbArc
 50
93.8075998152
 51
180.0
  0
ARC
  5
CA
330
1F
100
AcDbEntity
  8
0
  6
Continuous
 62
     7
370
    40
100
AcDbCircle
 10
1933.44853924
 20
745.2349423774
 30
0.0
 40
4.5
100
AcDbArc
 50
270.0
 51
0.0
  0
ARC
  5
CB
330
1F
100
AcDbEntity
  8
0
  6
Continuous
 62
     7
370
    40
100
AcDbCircle
 10
1891.44853924
 20
745.2349423774
 30
0.0
 40
4.5
100
AcDbArc
 50
180.0
 51
270.0
  0
ARC
  5
CC
330
1F
100
AcDbEntity
  8
0
  6
Continuous
 62
     7
370
    40
100
AcDbCircle
 10
1961.43853924
 20
776.0019237631
 30
0.0
 40
28.40000000000009
100
AcDbArc
 50
180.0
 51
213.203099198
  0
ARC
  5
CD
330
1F
100
AcDbEntity
  8
0
  6
Continuous
 62
     7
370
    40
100
AcDbCircle
 10
1863.45853924
 20
776.0019237631
 30
0.0
 40
28.39999999999987
100
AcDbArc
 50
326.796900802
 51
0.0
  0
ARC
  5
CE
330
1F
100
AcDbEntity
  8
0
  6
Continuous
 62
     7
370
    40
100
AcDbCircle
 10
1933.87353924
 20
752.0919237631
 30
0.0
 40
1.900000000000091
100
AcDbArc
 50
90.0
 51
180.0
  0
ARC
  5
CF
330
1F
100
AcDbEntity
  8
0
  6
Continuous
 62
     7
370
    40
100
AcDbCircle
 10
1891.02353924
 20
752.0919237631
 30
0.0
 40
1.900000000000091
100
AcDbArc
 50
0.0
 51
90.0
  0
ARC
  5
D0
330
1F
100
AcDbEntity
  8
0
  6
Continuous
 62
     7
370
    40
100
AcDbCircle
 10
1891.02353924
 20
751.6208154579
 30
0.0
 40
1.900000000000091
100
AcDbArc
 50
273.8075998157
 51
0.0
  0
ARC
  5
D1
330
1F
100
AcDbEntity
  8
0
  6
Continuous
 62
     7
370
    40
100
AcDbCircle
 10
1933.87353924
 20
751.6208154579
 30
0.0
 40
1.900000000000091
100
AcDbArc
 50
180.0
 51
266.1924001843
  0
LINE
  5
D2
330
1F
100
AcDbEntity
  8
0
  6
Continuous
 62
     7
370
    40
100
AcDbLine
 10
1891.4485805399
 20
740.7349371403
 30
0.0
 11
1896.1829774744
 21
198.217468807
 31
0.0
  0
LINE
  5
D3
330
1F
100
AcDbEntity
  8
0
  6
Continuous
 62
     7
370
    40
100
AcDbLine
 10
1928.7141197092
 20
198.217468807
 30
0.0
 11
1933.4485166437
 21
740.7349371403
 31
0.0
  0
LINE
  5
D4
330
1F
100
AcDbEntity
  8
0
  6
Continuous
 62
     7
370
    40
100
AcDbLine
 10
1891.8585412867
 20
777.0378016918
 30
0.0
 11
1891.8585412867
 21
776.0019176691
 31
0.0
  0
LINE
  5
D5
330
1F
100
AcDbEntity
  8
0
  6
Continuous
 62
     7
370
    40
100
AcDbLine
 10
1933.038555897
 20
776.0019176691
 30
0.0
 11
1933.038555897
 21
777.0378016918
 31
0.0
  0
LINE
  5
D6
330
1F
100
AcDbEntity
  8
0
  6
Continuous
 62
     7
370
    40
100
AcDbLine
 10
1892.9235570795
 20
752.0919167488
 30
0.0
 11
1892.9235570795
 21
751.6208165377
 31
0.0
  0
LINE
  5
D7
330
1F
100
AcDbEntity
  8
0
  6
Continuous
 62
     7
370
    40
100
AcDbLine
 10
1931.9735401041
 20
751.6208165377
 30
0.0
 11
1931.9735401041
 21
752.0919167488
 31
0.0
  0
ARC
  5
D8
330
1F
100
AcDbEntity
  8
0
  6
Continuous
 62
     7
370
    40
100
AcDbCircle
 10
1897.94853924
 20
181.0697909875
 30
0.0
 40
3.49999999999998
100
AcDbArc
 50
105.2575232905
 51
180.0
  0
ARC
  5
D9
330
1F
100
AcDbEntity
  8
0
  6
Continuous
 62
     7
370
    40
100
AcDbCircle
 10
1926.94853924
 20
181.0697909875
 30
0.0
 40
3.49999999999998
100
AcDbArc
 50
0.0
 51
74.7424767095
  0
ARC
  5
DA
330
1F
100
AcDbEntity
  8
0
  6
Continuous
 62
     7
370
    40
100
AcDbCircle
 10
1926.94853924
 20
180.7349423774
 30
0.0
 40
3.499999999999943
100
AcDbArc
 50
270.0
 51
0.0
  0
ARC
  5
DB
330
1F
100
AcDbEntity
  8
0
  6
Continuous
 62
     7
370
    40
100
AcDbCircle
 10
1897.94853924
 20
180.7349423774
 30
0.0
 40
3.499999999999943
100
AcDbArc
 50
180.0
 51
270.0
  0
LINE
  5
DC
330
1F
100
AcDbEntity
  8
0
  6
Continuous
 62
     7
370
    40
100
AcDbLine
 10
1894.4484823115
 20
181.0698085516
 30
0.0
 11
1894.4484823115
 21
180.7349496572
 31
0.0
  0
LINE
  5
DD
330
1F
100
AcDbEntity
  8
0
  6
Continuous
 62
     7
370
    40
100
AcDbLine
 10
1930.4484956629
 20
180.7349496572
 30
0.0
 11
1930.4484956629
 21
181.0698085516
 31
0.0
  0
ARC
  5
DE
330
1F
100
AcDbEntity
  8
0
  6
Continuous
 62
     7
370
    40
100
AcDbCircle
 10
1926.7141373067
 20
198.2349423774
 30
0.0
 40
2.000000000000125
100
AcDbArc
 50
289.9865925295
 51
359.5
  0
ARC
  5
DF
330
1F
100
AcDbEntity
  8
0
  6
Continuous
 62
     7
370
    40
100
AcDbCircle
 10
1898.1829411733
 20
198.2349423774
 30
0.0
 40
2.000000000000068
100
AcDbArc
 50
180.5
 51
250.0134074705
  0
ARC
  5
E0
330
1F
100
AcDbEntity
  8
0
  6
Continuous
 62
     7
370
    40
100
AcDbCircle
 10
1929.44853924
 20
190.2349423774
 30
0.0
 40
6.000000000000088
100
AcDbArc
 50
180.0
 51
254.7424767095
  0
ARC
  5
E1
330
1F
100
AcDbEntity
  8
0
  6
Continuous
 62
     7
370
    40
100
AcDbCircle
 10
1895.44853924
 20
190.2349423774
 30
0.0
 40
6.000000000000028
100
AcDbArc
 50
285.2575232905
 51
0.0
  0
ARC
  5
E2
330
1F
100
AcDbEntity
  8
0
  6
Continuous
 62
     7
370
    40
100
AcDbCircle
 10
1929.44853924
 20
190.7167613429
 30
0.0
 40
6.0
100
AcDbArc
 50
109.9865925295
 51
180.0
  0
ARC
  5
E3
330
1F
100
AcDbEntity
  8
0
  6
Continuous
 62
     7
370
    40
100
AcDbCircle
 10
1895.44853924
 20
190.7167613429
 30
0.0
 40
6.0
100
AcDbArc
 50
0.0
 51
70.0134074705
  0
ARC
  5
E4
330
1F
100
AcDbEntity
  8
0
  6
Continuous
 62
     7
370
    40
100
AcDbCircle
 10
1926.9230215234
 20
176.7349423774
 30
0.0
 40
0.5000000000001413
100
AcDbArc
 50
90.0
 51
177.0
  0
ARC
  5
E5
330
1F
100
AcDbEntity
  8
0
  6
Continuous
 62
     7
370
    40
100
AcDbCircle
 10
1897.9740569566
 20
176.7349423774
 30
0.0
 40
0.4999999999999432
100
AcDbArc
 50
3.0
 51
90.0
  0
LINE
  5
E6
330
1F
100
AcDbEntity
  8
0
  6
Continuous
 62
     7
370
    40
100
AcDbLine
 10
1898.4733455546
 20
176.7611079901
 30
0.0
 11
1901.7530315287
 21
114.1826086729
 31
0.0
  0
LINE
  5
E7
330
1F
100
AcDbEntity
  8
0
  6
Continuous
 62
     7
370
    40
100
AcDbLine
 10
1923.144065655
 20
114.1826086729
 30
0.0
 11
1926.4237516291
 21
176.7611079901
 31
0.0
  0
LINE
  5
E8
330
1F
100
AcDbEntity
  8
0
  6
Continuous
 62
     7
370
    40
100
AcDbLine
 10
1901.4485710032
 20
190.7167607038
 30
0.0
 11
1901.4485710032
 21
190.2349167555
 31
0.0
  0
LINE
  5
E9
330
1F
100
AcDbEntity
  8
0
  6
Continuous
 62
     7
370
    40
100
AcDbLine
 10
1923.4485261805
 20
190.2349167555
 30
0.0
 11
1923.4485261805
 21
190.7167607038
 31
0.0
  0
ARC
  5
EA
330
1F
100
AcDbEntity
  8
0
  6
Continuous
 62
     7
370
    40
100
AcDbCircle
 10
1922.1454767992
 20
114.2349423774
 30
0.0
 40
1.000000000000056
100
AcDbArc
 50
270.0
 51
357.0
  0
ARC
  5
EB
330
1F
100
AcDbEntity
  8
0
  6
Continuous
 62
     7
370
    40
100
AcDbCircle
 10
1902.7516016808
 20
114.2349423774
 30
0.0
 40
1.000000000000056
100
AcDbArc
 50
183.0
 51
270.0
  0
LINE
  5
EC
330
1F
100
AcDbEntity
  8
0
  6
Continuous
 62
     7
370
    40
100
AcDbLine
 10
358.6485319502
 20
810.2119290321
 30
0.0
 11
358.4485285647
 21
810.2119290321
 31
0.0
  0
LINE
  5
ED
330
1F
100
AcDbEntity
  8
0
  6
Continuous
 62
     7
370
    40
100
AcDbLine
 10
1880.2485101588
 20
810.2119290321
 30
0.0
 11
1880.4485433466
 21
810.2119290321
 31
0.0
  0
LINE
  5
EE
330
1F
100
AcDbEntity
  8
0
  6
Continuous
 62
     7
370
    40
100
AcDbLine
 10
1880.2485101588
 20
806.0119175404
 30
0.0
 11
1880.2485101588
 21
810.2119290321
 31
0.0
  0
LINE
  5
EF
330
1F
100
AcDbEntity
  8
0
  6
Continuous
 62
     7
370
    40
100
AcDbLine
 10
358.6485319502
 20
806.0119175404
 30
0.0
 11
358.6485319502
 21
810.2119290321
 31
0.0
  0
LINE
  5
F0
330
1F
100
AcDbEntity
  8
0
  6
Continuous
 62
     7
370
    40
100
AcDbLine
 10
1880.2485101588
 20
805.011930415
 30
0.0
 11
358.6485319502
 21
805.011930415
 31
0.0
  0
LINE
  5
F1
330
1F
100
AcDbEntity
  8
0
  6
Continuous
 62
     7
370
    40
100
AcDbLine
 10
358.6485319502
 20
805.011930415
 30
0.0
 11
358.6485319502
 21
806.0119175404
 31
0.0
  0
LINE
  5
F2
330
1F
100
AcDbEntity
  8
0
  6
Continuous
 62
     7
370
    40
100
AcDbLine
 10
1880.2485101588
 20
806.0119175404
 30
0.0
 11
1880.2485101588
 21
805.011930415
 31
0.0
  0
ARC
  5
F3
330
1F
100
AcDbEntity
  8
0
  6
Continuous
 62
     7
370
    40
100
AcDbCircle
 10
1852.44853924
 20
834.0119237631
 30
0.0
 40
1.0
100
AcDbArc
 50
270.0
 51
0.0
  0
LINE
  5
F4
330
1F
100
AcDbEntity
  8
0
  6
Continuous
 62
     7
370
    40
100
AcDbLine
 10
1852.4485462076
 20
942.1119228988
 30
0.0
 11
386.4485257036
 21
942.1119228988
 31
0.0
  0
ARC
  5
F5
330
1F
100
AcDbEntity
  8
0
  6
Continuous
 62
     7
370
    40
100
AcDbCircle
 10
386.44853924
 20
834.0119237631
 30
0.0
 40
1.0
100
AcDbArc
 50
180.0
 51
270.0
  0
LINE
  5
F6
330
1F
100
AcDbEntity
  8
0
  6
Continuous
 62
     7
370
    40
100
AcDbLine
 10
1853.4485929377
 20
834.0119295805
 30
0.0
 11
1853.4485929377
 21
941.1119245975
 31
0.0
  0
ARC
  5
F7
330
1F
100
AcDbEntity
  8
0
  6
Continuous
 62
     7
370
    40
100
AcDbCircle
 10
386.44853924
 20
941.1119237631
 30
0.0
 40
1.0
100
AcDbArc
 50
90.0
 51
180.0
  0
LINE
  5
F8
330
1F
100
AcDbEntity
  8
0
  6
Continuous
 62
     7
370
    40
100
AcDbLine
 10
385.4485385782
 20
941.1119245975
 30
0.0
 11
385.4485385782
 21
834.0119295805
 31
0.0
  0
ARC
  5
F9
330
1F
100
AcDbEntity
  8
0
  6
Continuous
 62
     7
370
    40
100
AcDbCircle
 10
1852.44853924
 20
941.1119237631
 30
0.0
 40
1.0
100
AcDbArc
 50
0.0
 51
90.0
  0
LINE
  5
FA
330
1F
100
AcDbEntity
  8
0
  6
Continuous
 62
     7
370
    40
100
AcDbLine
 10
386.4485257036
 20
833.0119275539
 30
0.0
 11
1852.4485462076
 21
833.0119275539
 31
0.0
  0
SPLINE
  5
FB
330
1F
100
AcDbEntity
  8
0
  6
Continuous
 62
     7
370
    40
100
AcDbSpline
210
0.0
220
0.0
230
1.0
 70
    24
 71
     3
 72
    14
 73
    10
 74
     0
 42
0.000000001
 43
0.00000001
 40
0.0
 40
0.0
 40
0.0
 40
0.0
 40
0.1203737126766577
 40
0.2985045849114673
 40
0.4712991097528206
 40
0.6440941717043488
 40
0.7626827756886757
 40
0.8813801551769006
 40
0.9999999999999999
 40
0.9999999999999999
 40
0.9999999999999999
 40
0.9999999999999999
 10
806.9485396809315
 20
805.0119304149591
 30
0.0
 10
806.9485396809315
 20
802.8940662799301
 30
0.0
 10
806.9485396809315
 20
797.6421542098598
 30
0.0
 10
806.9485396809315
 20
790.5731042034513
 30
0.0
 10
806.9485396809315
 20
783.6976171318136
 30
0.0
 10
806.9485396809315
 20
778.639513111393
 30
0.0
 10
806.9485396809315
 20
774.987047898459
 30
0.0
 10
806.9485396809315
 20
772.3536224939934
 30
0.0
 10
806.9485396809315
 20
771.0409747798521
 30
0.0
 10
806.9485396809315
 20
770.3848653524362
 30
0.0
  0
SPLINE
  5
FC
330
1F
100
AcDbEntity
  8
0
  6
Continuous
 62
     7
370
    40
100
AcDbSpline
210
0.0
220
0.0
230
1.0
 70
    24
 71
     3
 72
    13
 73
     9
 74
     0
 42
0.000000001
 43
0.00000001
 40
0.0
 40
0.0
 40
0.0
 40
0.0
 40
0.1751108345187539
 40
0.3508289494900667
 40
0.5264864301717234
 40
0.7015145122286228
 40
0.8767868852279881
 40
1.0
 40
1.0
 40
1.0
 40
1.0
 10
766.9485405750012
 20
770.3848653524362
 30
0.0
 10
766.9485405750012
 20
771.3978723517663
 30
0.0
 10
766.9485405750012
 20
773.427399436014
 30
0.0
 10
766.9485405750012
 20
777.9849696719485
 30
0.0
 10
766.9485405750012
 20
783.6203506532053
 30
0.0
 10
766.9485405750012
 20
790.4949308523026
 30
0.0
 10
766.9485405750012
 20
797.6071682319465
 30
0.0
 10
766.9485405750012
 20
802.8483856291518
 30
0.0
 10
766.9485405750012
 20
805.0119304149591
 30
0.0
  0
LINE
  5
FD
330
1F
100
AcDbEntity
  8
0
  6
Continuous
 62
     7
370
    40
100
AcDbLine
 10
826.6312329761
 20
787.111925432
 30
0.0
 11
821.9468906137
 21
787.111925432
 31
0.0
  0
LINE
  5
FE
330
1F
100
AcDbEntity
  8
0
  6
Continuous
 62
     7
370
    40
100
AcDbLine
 10
751.9501902826
 20
787.111925432
 30
0.0
 11
747.2657941944
 21
787.111925432
 31
0.0
  0
SPLINE
  5
FF
330
1F
100
AcDbEntity
  8
0
  6
Continuous
 62
     7
370
    40
100
AcDbSpline
210
0.0
220
0.0
230
1.0
 70
     8
 71
     3
 72
    11
 73
     7
 74
     0
 42
0.000000001
 43
0.00000001
 40
0.0
 40
0.0
 40
0.0
 40
0.0
 40
0.2965839608587245
 40
0.5759083193310768
 40
0.8486267661053469
 40
1.0
 40
1.0
 40
1.0
 40
1.0
 10
742.7979119784569
 20
782.8482859819376
 30
0.0
 10
742.0573342147886
 20
783.3484025905909
 30
0.0
 10
740.6192763576702
 20
784.3195316925328
 30
0.0
 10
738.6916926754119
 20
785.5986272765884
 30
0.0
 10
737.1493549138047
 20
786.6413162911786
 30
0.0
 10
736.3323023147483
 20
787.2464624161429
 30
0.0
 10
736.0406675107216
 20
787.4624603479349
 30
0.0
  0
SPLINE
  5
100
330
1F
100
AcDbEntity
  8
0
  6
Continuous
 62
     7
370
    40
100
AcDbSpline
210
0.0
220
0.0
230
1.0
 70
     8
 71
     3
 72
    11
 73
     7
 74
     0
 42
0.000000001
 43
0.00000001
 40
0.0
 40
0.0
 40
0.0
 40
0.0
 40
0.1490365631511936
 40
0.4224904430103531
 40
0.7025894308812859
 40
1.0
 40
1.0
 40
1.0
 40
1.0
 10
837.8990859455799
 20
787.4510013549768
 30
0.0
 10
837.6113181045326
 20
787.2389647307182
 30
0.0
 10
836.7955507513569
 20
786.637881040761
 30
0.0
 10
835.2528977756176
 20
785.5991877690362
 30
0.0
 10
833.3185719226011
 20
784.3198172699259
 30
0.0
 10
831.8778159766252
 20
783.3479707467392
 30
0.0
 10
831.1358437604641
 20
782.8474813192331
 30
0.0
  0
LINE
  5
101
330
1F
100
AcDbEntity
  8
0
  6
Continuous
 62
     7
370
    40
100
AcDbLine
 10
806.9485396809
 20
770.3848653524
 30
0.0
 11
806.9485396809
 21
769.3620794504
 31
0.0
  0
LINE
  5
102
330
1F
100
AcDbEntity
  8
0
  6
Continuous
 62
     7
370
    40
100
AcDbLine
 10
766.948540575
 20
769.3620794504
 30
0.0
 11
766.948540575
 21
770.3848653524
 31
0.0
  0
LINE
  5
103
330
1F
100
AcDbEntity
  8
0
  6
Continuous
 62
     7
370
    40
100
AcDbLine
 10
769.9485392041
 20
766.2698500841
 30
0.0
 11
775.0529245205
 21
766.3786136597
 31
0.0
  0
LINE
  5
104
330
1F
100
AcDbEntity
  8
0
  6
Continuous
 62
     7
370
    40
100
AcDbLine
 10
803.9485391892
 20
766.2698500841
 30
0.0
 11
803.9485391892
 21
766.2683897703
 31
0.0
  0
LINE
  5
105
330
1F
100
AcDbEntity
  8
0
  6
Continuous
 62
     7
370
    40
100
AcDbLine
 10
806.9485396809
 20
769.3620794504
 30
0.0
 11
806.9485396809
 21
769.2683809488
 31
0.0
  0
LINE
  5
106
330
1F
100
AcDbEntity
  8
0
  6
Continuous
 62
     7
370
    40
100
AcDbLine
 10
766.948540575
 20
769.2683809488
 30
0.0
 11
766.948540575
 21
769.3620794504
 31
0.0
  0
LINE
  5
107
330
1F
100
AcDbEntity
  8
0
  6
Continuous
 62
     7
370
    40
100
AcDbLine
 10
798.8441520102
 20
766.3786136597
 30
0.0
 11
803.9485391892
 21
766.2698500841
 31
0.0
  0
LINE
  5
108
330
1F
100
AcDbEntity
  8
0
  6
Continuous
 62
     7
370
    40
100
AcDbLine
 10
811.2887766875
 20
755.1119201868
 30
0.0
 11
762.6083017058
 21
755.1119201868
 31
0.0
  0
SPLINE
  5
109
330
1F
100
AcDbEntity
  8
0
  6
Continuous
 62
     7
370
    40
100
AcDbSpline
210
0.0
220
0.0
230
1.0
 70
    24
 71
     3
 72
    13
 73
     9
 74
     0
 42
0.000000001
 43
0.00000001
 40
0.0
 40
0.0
 40
0.0
 40
0.0
 40
0.1751108345187539
 40
0.3508289494900667
 40
0.5264864301717234
 40
0.7015145122286228
 40
0.8767868852279881
 40
1.0
 40
1.0
 40
1.0
 40
1.0
 10
1431.948565757963
 20
770.3848653524362
 30
0.0
 10
1431.948565757963
 20
771.3978723517663
 30
0.0
 10
1431.948565757964
 20
773.427399436014
 30
0.0
 10
1431.948565757964
 20
777.9849696719485
 30
0.0
 10
1431.948565757963
 20
783.6203506532053
 30
0.0
 10
1431.948565757963
 20
790.4949308523026
 30
0.0
 10
1431.948565757964
 20
797.6071682319465
 30
0.0
 10
1431.948565757963
 20
802.8483856291518
 30
0.0
 10
1431.948565757963
 20
805.0119304149591
 30
0.0
  0
SPLINE
  5
10A
330
1F
100
AcDbEntity
  8
0
  6
Continuous
 62
     7
370
    40
100
AcDbSpline
210
0.0
220
0.0
230
1.0
 70
    24
 71
     3
 72
    14
 73
    10
 74
     0
 42
0.000000001
 43
0.00000001
 40
0.0
 40
0.0
 40
0.0
 40
0.0
 40
0.1203737126766577
 40
0.2985045849114673
 40
0.4712991097528206
 40
0.6440941717043488
 40
0.7626827756886757
 40
0.8813801551769006
 40
0.9999999999999999
 40
0.9999999999999999
 40
0.9999999999999999
 40
0.9999999999999999
 10
1471.948527610991
 20
805.0119304149591
 30
0.0
 10
1471.948527610991
 20
802.8940662799301
 30
0.0
 10
1471.948527610991
 20
797.6421542098598
 30
0.0
 10
1471.948527610991
 20
790.5731042034513
 30
0.0
 10
1471.948527610991
 20
783.6976171318136
 30
0.0
 10
1471.948527610991
 20
778.639513111393
 30
0.0
 10
1471.948527610991
 20
774.987047898459
 30
0.0
 10
1471.948527610991
 20
772.3536224939934
 30
0.0
 10
1471.948527610991
 20
771.0409747798521
 30
0.0
 10
1471.948527610991
 20
770.3848653524362
 30
0.0
  0
LINE
  5
10B
330
1F
100
AcDbEntity
  8
0
  6
Continuous
 62
     7
370
    40
100
AcDbLine
 10
1491.6312330134
 20
787.111925432
 30
0.0
 11
1486.9469039805
 21
787.111925432
 31
0.0
  0
LINE
  5
10C
330
1F
100
AcDbEntity
  8
0
  6
Continuous
 62
     7
370
    40
100
AcDbLine
 10
1416.9501893885
 20
787.111925432
 30
0.0
 11
1412.2658007509
 21
787.111925432
 31
0.0
  0
SPLINE
  5
10D
330
1F
100
AcDbEntity
  8
0
  6
Continuous
 62
     7
370
    40
100
AcDbSpline
210
0.0
220
0.0
230
1.0
 70
     8
 71
     3
 72
    11
 73
     7
 74
     0
 42
0.000000001
 43
0.00000001
 40
0.0
 40
0.0
 40
0.0
 40
0.0
 40
0.2965830325460538
 40
0.5759105281243027
 40
0.8486287393286404
 40
1.0
 40
1.0
 40
1.0
 40
1.0
 10
1407.797896183226
 20
782.8482859819376
 30
0.0
 10
1407.057328505335
 20
783.3484046240666
 30
0.0
 10
1405.619280216381
 20
784.3195444389131
 30
0.0
 10
1403.691672285995
 20
785.5986178657573
 30
0.0
 10
1402.149339828679
 20
786.6413102381107
 30
0.0
 10
1401.332317968579
 20
787.2464620698693
 30
0.0
 10
1401.040696418974
 20
787.4624603479349
 30
0.0
  0
SPLINE
  5
10E
330
1F
100
AcDbEntity
  8
0
  6
Continuous
 62
     7
370
    40
100
AcDbSpline
210
0.0
220
0.0
230
1.0
 70
     8
 71
     3
 72
    11
 73
     7
 74
     0
 42
0.000000001
 43
0.00000001
 40
0.0
 40
0.0
 40
0.0
 40
0.0
 40
0.1490351901078749
 40
0.4224896088613551
 40
0.702589297927334
 40
1.0
 40
1.0
 40
1.0
 40
1.0
 10
1502.899073875639
 20
787.4510013549768
 30
0.0
 10
1502.611314999775
 20
787.238964266351
 30
0.0
 10
1501.79556715645
 20
786.6378749090469
 30
0.0
 10
1500.252905346354
 20
785.5991884098494
 30
0.0
 10
1498.318579720332
 20
784.319818690986
 30
0.0
 10
1496.877824925563
 20
783.3479709003147
 30
0.0
 10
1496.135854042265
 20
782.8474813192331
 30
0.0
  0
LINE
  5
10F
330
1F
100
AcDbEntity
  8
0
  6
Continuous
 62
     7
370
    40
100
AcDbLine
 10
1431.948565758
 20
769.3620794504
 30
0.0
 11
1431.948565758
 21
770.3848653524
 31
0.0
  0
LINE
  5
110
330
1F
100
AcDbEntity
  8
0
  6
Continuous
 62
     7
370
    40
100
AcDbLine
 10
1471.948527611
 20
770.3848653524
 30
0.0
 11
1471.948527611
 21
769.3620794504
 31
0.0
  0
LINE
  5
111
330
1F
100
AcDbEntity
  8
0
  6
Continuous
 62
     7
370
    40
100
AcDbLine
 10
1463.8441436655
 20
766.3786136597
 30
0.0
 11
1468.9485662348
 21
766.2698500841
 31
0.0
  0
LINE
  5
112
330
1F
100
AcDbEntity
  8
0
  6
Continuous
 62
     7
370
    40
100
AcDbLine
 10
1434.9485271342
 20
766.2698500841
 30
0.0
 11
1440.0529497034
 21
766.3786136597
 31
0.0
  0
LINE
  5
113
330
1F
100
AcDbEntity
  8
0
  6
Continuous
 62
     7
370
    40
100
AcDbLine
 10
1471.948527611
 20
769.3620794504
 30
0.0
 11
1471.948527611
 21
769.2683809488
 31
0.0
  0
LINE
  5
114
330
1F
100
AcDbEntity
  8
0
  6
Continuous
 62
     7
370
    40
100
AcDbLine
 10
1431.948565758
 20
769.2683809488
 30
0.0
 11
1431.948565758
 21
769.3620794504
 31
0.0
  0
LINE
  5
115
330
1F
100
AcDbEntity
  8
0
  6
Continuous
 62
     7
370
    40
100
AcDbLine
 10
1476.2887590296
 20
755.1119201868
 30
0.0
 11
1427.6082747347
 21
755.1119201868
 31
0.0
  0
LINE
  5
116
330
1F
100
AcDbEntity
  8
0
  6
Continuous
 62
     7
370
    40
100
AcDbLine
 10
1924.4485729105
 20
995.1119241356
 30
0.0
 11
1929.4485681421
 21
995.1119241356
 31
0.0
  0
LINE
  5
117
330
1F
100
AcDbEntity
  8
0
  6
Continuous
 62
     7
370
    40
100
AcDbLine
 10
309.4485633738
 20
995.1119241356
 30
0.0
 11
314.4485586054
 21
995.1119241356
 31
0.0
  0
LINE
  5
118
330
1F
100
AcDbEntity
  8
0
  6
Continuous
 62
     7
370
    40
100
AcDbLine
 10
1924.4485729105
 20
995.1119241356
 30
0.0
 11
314.4485586054
 21
995.1119241356
 31
0.0
  0
LINE
  5
119
330
1F
100
AcDbEntity
  8
0
  6
Continuous
 62
     7
370
    40
100
AcDbLine
 10
281.4485662348
 20
995.1119241356
 30
0.0
 11
309.4485633738
 21
995.1119241356
 31
0.0
  0
ARC
  5
11A
330
1F
100
AcDbEntity
  8
0
  6
Continuous
 62
     7
370
    40
100
AcDbCircle
 10
281.44853924
 20
983.1119237631
 30
0.0
 40
12.0
100
AcDbArc
 50
90.0
 51
180.0
  0
LINE
  5
11B
330
1F
100
AcDbEntity
  8
0
  6
Continuous
 62
     7
370
    40
100
AcDbLine
 10
269.4485419161
 20
982.1119238674
 30
0.0
 11
269.4485419161
 21
983.1119240313
 31
0.0
  0
LINE
  5
11C
330
1F
100
AcDbEntity
  8
0
  6
Continuous
 62
     7
370
    40
100
AcDbLine
 10
309.4485633738
 20
970.1119237631
 30
0.0
 11
281.4485662348
 21
970.1119237631
 31
0.0
  0
ARC
  5
11D
330
1F
100
AcDbEntity
  8
0
  6
Continuous
 62
     7
370
    40
100
AcDbCircle
 10
281.44853924
 20
982.1119237631
 30
0.0
 40
12.0
100
AcDbArc
 50
180.0
 51
270.0
  0
LINE
  5
11E
330
1F
100
AcDbEntity
  8
0
  6
Continuous
 62
     7
370
    40
100
AcDbLine
 10
1929.4485681421
 20
970.1119237631
 30
0.0
 11
309.4485633738
 21
970.1119237631
 31
0.0
  0
LINE
  5
11F
330
1F
100
AcDbEntity
  8
0
  6
Continuous
 62
     7
370
    40
100
AcDbLine
 10
1969.4485299952
 20
983.1119240313
 30
0.0
 11
1969.4485299952
 21
982.1119238674
 31
0.0
  0
LINE
  5
120
330
1F
100
AcDbEntity
  8
0
  6
Continuous
 62
     7
370
    40
100
AcDbLine
 10
1929.4485681421
 20
995.1119241356
 30
0.0
 11
1957.4485652811
 21
995.1119241356
 31
0.0
  0
ARC
  5
121
330
1F
100
AcDbEntity
  8
0
  6
Continuous
 62
     7
370
    40
100
AcDbCircle
 10
1957.44853924
 20
983.1119237631
 30
0.0
 40
12.0
100
AcDbArc
 50
0.0
 51
90.0
  0
LINE
  5
122
330
1F
100
AcDbEntity
  8
0
  6
Continuous
 62
     7
370
    40
100
AcDbLine
 10
1957.4485652811
 20
970.1119237631
 30
0.0
 11
1929.4485681421
 21
970.1119237631
 31
0.0
  0
ARC
  5
123
330
1F
100
AcDbEntity
  8
0
  6
Continuous
 62
     7
370
    40
100
AcDbCircle
 10
1957.44853924
 20
982.1119237631
 30
0.0
 40
12.0
100
AcDbArc
 50
270.0
 51
0.0
  0
ARC
  5
124
330
1F
100
AcDbEntity
  8
0
  6
Continuous
 62
     7
370
    40
100
AcDbCircle
 10
281.44853924
 20
1008.1119237631
 30
0.0
 40
12.99999999999998
100
AcDbArc
 50
270.0
 51
356.4166783015
  0
ARC
  5
125
330
1F
100
AcDbEntity
  8
0
  6
Continuous
 62
     7
370
    40
100
AcDbCircle
 10
1957.44853924
 20
1008.1119237631
 30
0.0
 40
12.99999999999989
100
AcDbArc
 50
183.5833216985
 51
270.0
  0
LINE
  5
126
330
1F
100
AcDbEntity
  8
0
  6
Continuous
 62
     7
370
    40
100
AcDbLine
 10
314.4485586054
 20
1010.111922869
 30
0.0
 11
1924.4485729105
 21
1010.111922869
 31
0.0
  0
LINE
  5
127
330
1F
100
AcDbEntity
  8
0
  6
Continuous
 62
     7
370
    40
100
AcDbLine
 10
297.4172466166
 20
1010.111922869
 30
0.0
 11
314.4485586054
 21
1010.111922869
 31
0.0
  0
ARC
  5
128
330
1F
100
AcDbEntity
  8
0
  6
Continuous
 62
     7
370
    40
100
AcDbCircle
 10
297.4172586627
 20
1007.1119237631
 30
0.0
 40
3.000000000000018
100
AcDbArc
 50
90.0
 51
176.4166783015
  0
LINE
  5
129
330
1F
100
AcDbEntity
  8
0
  6
Continuous
 62
     7
370
    40
100
AcDbLine
 10
1924.4485729105
 20
1010.111922869
 30
0.0
 11
1941.4797656901
 21
1010.111922869
 31
0.0
  0
ARC
  5
12A
330
1F
100
AcDbEntity
  8
0
  6
Continuous
 62
     7
370
    40
100
AcDbCircle
 10
1941.4798198173
 20
1007.1119237631
 30
0.0
 40
3.000000000000075
100
AcDbArc
 50
3.5833216985
 51
90.0
  0
LINE
  5
12B
330
1F
100
AcDbEntity
  8
0
  6
Continuous
 62
     7
370
    40
100
AcDbLine
 10
294.4485180742
 20
969.1119237156
 30
0.0
 11
294.4485180742
 21
969.3119237833
 31
0.0
  0
ARC
  5
12C
330
1F
100
AcDbEntity
  8
0
  6
Continuous
 62
     7
370
    40
100
AcDbCircle
 10
295.44853924
 20
969.3119237631
 30
0.0
 40
1.000000000000102
100
AcDbArc
 50
126.8698976458
 51
180.0
  0
ARC
  5
12D
330
1F
100
AcDbEntity
  8
0
  6
Continuous
 62
     7
370
    40
100
AcDbCircle
 10
1943.44853924
 20
969.3119237631
 30
0.0
 40
1.0
100
AcDbArc
 50
0.0
 51
53.1301023542
  0
LINE
  5
12E
330
1F
100
AcDbEntity
  8
0
  6
Continuous
 62
     7
370
    40
100
AcDbLine
 10
1944.448553837
 20
969.3119237833
 30
0.0
 11
1944.448553837
 21
969.1119237156
 31
0.0
  0
LINE
  5
12F
330
1F
100
AcDbEntity
  8
0
  6
Continuous
 62
     7
370
    40
100
AcDbLine
 10
326.4485531218
 20
805.1119172066
 30
0.0
 11
295.4485648043
 21
805.1119172066
 31
0.0
  0
ARC
  5
130
330
1F
100
AcDbEntity
  8
0
  6
Continuous
 62
     7
370
    40
100
AcDbCircle
 10
295.44853924
 20
806.1119237631
 30
0.0
 40
1.0
100
AcDbArc
 50
180.0
 51
270.0
  0
LINE
  5
131
330
1F
100
AcDbEntity
  8
0
  6
Continuous
 62
     7
370
    40
100
AcDbLine
 10
294.4485180742
 20
969.1119237156
 30
0.0
 11
294.4485180742
 21
806.1119192331
 31
0.0
  0
ARC
  5
132
330
1F
100
AcDbEntity
  8
0
  6
Continuous
 62
     7
370
    40
100
AcDbCircle
 10
357.44853924
 20
969.1119237631
 30
0.0
 40
1.0
100
AcDbArc
 50
0.0
 51
90.0
  0
LINE
  5
133
330
1F
100
AcDbEntity
  8
0
  6
Continuous
 62
     7
370
    40
100
AcDbLine
 10
357.4485414393
 20
805.1119172066
 30
0.0
 11
326.4485531218
 21
805.1119172066
 31
0.0
  0
ARC
  5
134
330
1F
100
AcDbEntity
  8
0
  6
Continuous
 62
     7
370
    40
100
AcDbCircle
 10
357.44853924
 20
806.1119237631
 30
0.0
 40
1.0
100
AcDbArc
 50
270.0
 51
0.0
  0
ARC
  5
135
330
1F
100
AcDbEntity
  8
0
  6
Continuous
 62
     7
370
    40
100
AcDbCircle
 10
295.44853924
 20
969.1119237631
 30
0.0
 40
1.0
100
AcDbArc
 50
90.0
 51
180.0
  0
LINE
  5
136
330
1F
100
AcDbEntity
  8
0
  6
Continuous
 62
     7
370
    40
100
AcDbLine
 10
358.4485285647
 20
969.1119237156
 30
0.0
 11
358.4485285647
 21
806.1119192331
 31
0.0
  0
LINE
  5
137
330
1F
100
AcDbEntity
  8
0
  6
Continuous
 62
     7
370
    40
100
AcDbLine
 10
348.6263089545
 20
753.9919191092
 30
0.0
 11
304.2707674868
 21
753.9919191092
 31
0.0
  0
LINE
  5
138
330
1F
100
AcDbEntity
  8
0
  6
Continuous
 62
     7
370
    40
100
AcDbLine
 10
347.448550976
 20
740.7349371403
 30
0.0
 11
305.4485552675
 21
740.7349371403
 31
0.0
  0
LINE
  5
139
330
1F
100
AcDbEntity
  8
0
  6
Continuous
 62
     7
370
    40
100
AcDbLine
 10
340.948545254
 20
177.234964916
 30
0.0
 11
311.9485609896
 21
177.234964916
 31
0.0
  0
LINE
  5
13A
330
1F
100
AcDbEntity
  8
0
  6
Continuous
 62
     7
370
    40
100
AcDbLine
 10
336.1454837687
 20
113.2349544256
 30
0.0
 11
316.7516224749
 21
113.2349544256
 31
0.0
  0
LINE
  5
13B
330
1F
100
AcDbEntity
  8
0
  6
Continuous
 62
     7
370
    40
100
AcDbLine
 10
1944.448553837
 20
969.1119237156
 30
0.0
 11
1944.448553837
 21
806.1119192331
 31
0.0
  0
ARC
  5
13C
330
1F
100
AcDbEntity
  8
0
  6
Continuous
 62
     7
370
    40
100
AcDbCircle
 10
1943.44853924
 20
969.1119237631
 30
0.0
 40
1.0
100
AcDbArc
 50
0.0
 51
90.0
  0
ARC
  5
13D
330
1F
100
AcDbEntity
  8
0
  6
Continuous
 62
     7
370
    40
100
AcDbCircle
 10
1881.44853924
 20
806.1119237631
 30
0.0
 40
1.0
100
AcDbArc
 50
180.0
 51
270.0
  0
LINE
  5
13E
330
1F
100
AcDbEntity
  8
0
  6
Continuous
 62
     7
370
    40
100
AcDbLine
 10
1943.448507107
 20
805.1119172066
 30
0.0
 11
1912.4484889872
 21
805.1119172066
 31
0.0
  0
ARC
  5
13F
330
1F
100
AcDbEntity
  8
0
  6
Continuous
 62
     7
370
    40
100
AcDbCircle
 10
1943.44853924
 20
806.1119237631
 30
0.0
 40
1.0
100
AcDbArc
 50
270.0
 51
0.0
  0
LINE
  5
140
330
1F
100
AcDbEntity
  8
0
  6
Continuous
 62
     7
370
    40
100
AcDbLine
 10
1912.4484889872
 20
805.1119172066
 30
0.0
 11
1881.4485900767
 21
805.1119172066
 31
0.0
  0
ARC
  5
141
330
1F
100
AcDbEntity
  8
0
  6
Continuous
 62
     7
370
    40
100
AcDbCircle
 10
1881.44853924
 20
969.1119237631
 30
0.0
 40
1.0
100
AcDbArc
 50
90.0
 51
180.0
  0
LINE
  5
142
330
1F
100
AcDbEntity
  8
0
  6
Continuous
 62
     7
370
    40
100
AcDbLine
 10
1880.4485433466
 20
806.1119192331
 30
0.0
 11
1880.4485433466
 21
969.1119237156
 31
0.0
  0
LINE
  5
143
330
1F
100
AcDbEntity
  8
0
  6
Continuous
 62
     7
370
    40
100
AcDbLine
 10
1934.6263044245
 20
753.9919191092
 30
0.0
 11
1890.2707927592
 21
753.9919191092
 31
0.0
  0
LINE
  5
144
330
1F
100
AcDbEntity
  8
0
  6
Continuous
 62
     7
370
    40
100
AcDbLine
 10
1891.4485805399
 20
740.7349371403
 30
0.0
 11
1933.4485166437
 21
740.7349371403
 31
0.0
  0
LINE
  5
145
330
1F
100
AcDbEntity
  8
0
  6
Continuous
 62
     7
370
    40
100
AcDbLine
 10
1897.948586262
 20
177.234964916
 30
0.0
 11
1926.9485109217
 21
177.234964916
 31
0.0
  0
LINE
  5
146
330
1F
100
AcDbEntity
  8
0
  6
Continuous
 62
     7
370
    40
100
AcDbLine
 10
1922.1454494364
 20
113.2349544256
 30
0.0
 11
1902.7516477473
 21
113.2349544256
 31
0.0
  0
LINE
  5
147
330
1F
100
AcDbEntity
  8
0
  6
PHANTOM
 62
     8
370
     0
100
AcDbLine
 10
358.6485319502
 20
806.0119175404
 30
0.0
 11
1880.2485101588
 21
806.0119175404
 31
0.0
  0
SPLINE
  5
148
330
1F
100
AcDbEntity
  8
0
  6
PHANTOM
 62
     8
370
     0
100
AcDbSpline
210
0.0
220
0.0
230
1.0
 70
     8
 71
     3
 72
    12
 73
     8
 74
     0
 42
0.000000001
 43
0.00000001
 40
0.0
 40
0.0
 40
0.0
 40
0.0
 40
0.2214456664789442
 40
0.4440043666747647
 40
0.6465430895313302
 40
0.8407771756611627
 40
1.0
 40
1.0
 40
1.0
 40
1.0
 10
377.1656387216782
 20
949.1222747652971
 30
0.0
 10
377.1779481501498
 20
949.2712918245759
 30
0.0
 10
377.2026288769377
 20
949.5700749350376
 30
0.0
 10
377.419291746381
 20
949.9615063842225
 30
0.0
 10
377.7403662003222
 20
950.2342198825028
 30
0.0
 10
378.0942973735479
 20
950.3742266618895
 30
0.0
 10
378.3313927860723
 20
950.3884262314821
 30
0.0
 10
378.4381978876328
 20
950.3948227553808
 30
0.0
  0
LINE
  5
149
330
1F
100
AcDbEntity
  8
0
  6
PHANTOM
 62
     8
370
     0
100
AcDbLine
 10
377.1656387217
 20
826.0015719622
 30
0.0
 11
377.1656387217
 21
949.1222747653
 31
0.0
  0
SPLINE
  5
14A
330
1F
100
AcDbEntity
  8
0
  6
PHANTOM
 62
     8
370
     0
100
AcDbSpline
210
0.0
220
0.0
230
1.0
 70
     8
 71
     3
 72
    12
 73
     8
 74
     0
 42
0.000000001
 43
0.00000001
 40
0.0
 40
0.0
 40
0.0
 40
0.0
 40
0.2214522520744634
 40
0.4440119390580493
 40
0.6465531761929627
 40
0.8407859916268756
 40
1.0
 40
1.0
 40
1.0
 40
1.0
 10
378.4381978876328
 20
824.7290276973688
 30
0.0
 10
378.2891747842369
 20
824.7413306876317
 30
0.0
 10
377.9903833450742
 20
824.7659981927561
 30
0.0
 10
377.5989363374557
 20
824.9826627453696
 30
0.0
 10
377.3262397652597
 20
825.3037560056254
 30
0.0
 10
377.1862261374864
 20
825.6576804919054
 30
0.0
 10
377.1720324322703
 20
825.8947716450947
 30
0.0
 10
377.1656387216782
 20
826.0015719621622
 30
0.0
  0
LINE
  5
14B
330
1F
100
AcDbEntity
  8
0
  6
PHANTOM
 62
     8
370
     0
100
AcDbLine
 10
1860.4589336283
 20
824.7290276974
 30
0.0
 11
378.4381978876
 21
824.7290276974
 31
0.0
  0
SPLINE
  5
14C
330
1F
100
AcDbEntity
  8
0
  6
PHANTOM
 62
     8
370
     0
100
AcDbSpline
210
0.0
220
0.0
230
1.0
 70
     8
 71
     3
 72
    12
 73
     8
 74
     0
 42
0.000000001
 43
0.00000001
 40
0.0
 40
0.0
 40
0.0
 40
0.0
 40
0.2214542996569437
 40
0.4440276918826297
 40
0.6465509968305746
 40
0.8407890632655589
 40
1.0
 40
1.0
 40
1.0
 40
1.0
 10
1861.731492794249
 20
826.0015719621622
 30
0.0
 10
1861.719177518271
 20
825.8525498800732
 30
0.0
 10
1861.694484732555
 20
825.5537526507936
 30
0.0
 10
1861.477736371726
 20
825.1623840024577
 30
0.0
 10
1861.156737690568
 20
824.8896035510181
 30
0.0
 10
1860.802811424842
 20
824.7496207841
 30
0.0
 10
1860.565727824308
 20
824.7354230568917
 30
0.0
 10
1860.458933628294
 20
824.7290276973688
 30
0.0
  0
LINE
  5
14D
330
1F
100
AcDbEntity
  8
0
  6
PHANTOM
 62
     8
370
     0
100
AcDbLine
 10
1861.7314927942
 20
949.1222747653
 30
0.0
 11
1861.7314927942
 21
826.0015719622
 31
0.0
  0
SPLINE
  5
14E
330
1F
100
AcDbEntity
  8
0
  6
PHANTOM
 62
     8
370
     0
100
AcDbSpline
210
0.0
220
0.0
230
1.0
 70
     8
 71
     3
 72
    12
 73
     8
 74
     0
 42
0.000000001
 43
0.00000001
 40
0.0
 40
0.0
 40
0.0
 40
0.0
 40
0.2214177425586722
 40
0.4439985343549591
 40
0.6465293789426633
 40
0.8407711023351091
 40
1.0
 40
1.0
 40
1.0
 40
1.0
 10
1860.458933628294
 20
950.3948227553808
 30
0.0
 10
1860.607923488313
 20
950.382509183569
 30
0.0
 10
1860.906685812947
 20
950.3578173599874
 30
0.0
 10
1861.298137311145
 20
950.1412156490846
 30
0.0
 10
1861.570763749194
 20
949.8200622061004
 30
0.0
 10
1861.71079833469
 20
949.4661709261674
 30
0.0
 10
1861.725065723688
 20
949.2290784672844
 30
0.0
 10
1861.731492794249
 20
949.1222747652971
 30
0.0
  0
LINE
  5
14F
330
1F
100
AcDbEntity
  8
0
  6
PHANTOM
 62
     8
370
     0
100
AcDbLine
 10
378.4381978876
 20
950.3948227554
 30
0.0
 11
1860.4589336283
 21
950.3948227554
 31
0.0
  0
LINE
  5
150
330
1F
100
AcDbEntity
  8
0
  6
PHANTOM
 62
     8
370
     0
100
AcDbLine
 10
1861.3072269327
 20
949.1222747653
 30
0.0
 11
1861.7314927942
 21
949.1222747653
 31
0.0
  0
SPLINE
  5
151
330
1F
100
AcDbEntity
  8
0
  6
PHANTOM
 62
     8
370
     0
100
AcDbSpline
210
0.0
220
0.0
230
1.0
 70
     8
 71
     3
 72
    14
 73
    10
 74
     0
 42
0.000000001
 43
0.00000001
 40
0.0
 40
0.0
 40
0.0
 40
0.0
 40
0.1656998141059739
 40
0.3584750378229669
 40
0.517894318154734
 40
0.5538737649238352
 40
0.7491829642760937
 40
0.7716189142248021
 40
1.0
 40
1.0
 40
1.0
 40
1.0
 10
1861.307226932738
 20
949.1222747652971
 30
0.0
 10
1861.309362126648
 20
949.1989181355176
 30
0.0
 10
1861.313981405925
 20
949.3647284303989
 30
0.0
 10
1861.23945760304
 20
949.5993930182343
 30
0.0
 10
1861.128235549168
 20
949.7458134750738
 30
0.0
 10
1860.990569973849
 20
949.8641976308024
 30
0.0
 10
1860.881592842823
 20
949.9184119677175
 30
0.0
 10
1860.68249040467
 20
949.9735744836353
 30
0.0
 10
1860.565478577097
 20
949.9720389190203
 30
0.0
 10
1860.458933628294
 20
949.9706407129013
 30
0.0
  0
LINE
  5
152
330
1F
100
AcDbEntity
  8
0
  6
PHANTOM
 62
     8
370
     0
100
AcDbLine
 10
1860.4589336283
 20
950.3948227554
 30
0.0
 11
1860.4589336283
 21
949.9706407129
 31
0.0
  0
SPLINE
  5
153
330
1F
100
AcDbEntity
  8
0
  6
PHANTOM
 62
     8
370
     0
100
AcDbSpline
210
0.0
220
0.0
230
1.0
 70
     8
 71
     3
 72
    14
 73
    10
 74
     0
 42
0.000000001
 43
0.00000001
 40
0.0
 40
0.0
 40
0.0
 40
0.0
 40
0.1656384756504094
 40
0.3584571585437282
 40
0.5178885418158252
 40
0.5538684618040731
 40
0.7491202077967037
 40
0.7715887421182699
 40
1.0
 40
1.0
 40
1.0
 40
1.0
 10
1860.458933628294
 20
825.1532041519129
 30
0.0
 10
1860.53554433553
 20
825.1511137886348
 30
0.0
 10
1860.701337073733
 20
825.1465900469254
 30
0.0
 10
1860.936052924385
 20
825.2209009268632
 30
0.0
 10
1861.082495224522
 20
825.3322095789341
 30
0.0
 10
1861.200696937114
 20
825.4699875357658
 30
0.0
 10
1861.255248379628
 20
825.5787980830661
 30
0.0
 10
1861.309982886494
 20
825.7780277207645
 30
0.0
 10
1861.308540311871
 20
825.895039571539
 30
0.0
 10
1861.307226932738
 20
826.0015719621622
 30
0.0
  0
LINE
  5
154
330
1F
100
AcDbEntity
  8
0
  6
PHANTOM
 62
     8
370
     0
100
AcDbLine
 10
1861.3072269327
 20
826.0015719622
 30
0.0
 11
1861.7314927942
 21
826.0015719622
 31
0.0
  0
LINE
  5
155
330
1F
100
AcDbEntity
  8
0
  6
PHANTOM
 62
     8
370
     0
100
AcDbLine
 10
1860.4589336283
 20
825.1532041519
 30
0.0
 11
1860.4589336283
 21
824.7290276974
 31
0.0
  0
LINE
  5
156
330
1F
100
AcDbEntity
  8
0
  6
PHANTOM
 62
     8
370
     0
100
AcDbLine
 10
378.4381978876
 20
825.1532041519
 30
0.0
 11
1860.4589336283
 21
825.1532041519
 31
0.0
  0
LINE
  5
157
330
1F
100
AcDbEntity
  8
0
  6
PHANTOM
 62
     8
370
     0
100
AcDbLine
 10
378.4381978876
 20
825.1532041519
 30
0.0
 11
378.4381978876
 21
824.7290276974
 31
0.0
  0
LINE
  5
158
330
1F
100
AcDbEntity
  8
0
  6
PHANTOM
 62
     8
370
     0
100
AcDbLine
 10
377.1656387217
 20
826.0015719622
 30
0.0
 11
377.5898151762
 21
826.0015719622
 31
0.0
  0
SPLINE
  5
159
330
1F
100
AcDbEntity
  8
0
  6
PHANTOM
 62
     8
370
     0
100
AcDbSpline
210
0.0
220
0.0
230
1.0
 70
     8
 71
     3
 72
    14
 73
    10
 74
     0
 42
0.000000001
 43
0.00000001
 40
0.0
 40
0.0
 40
0.0
 40
0.0
 40
0.1656976650224932
 40
0.3584499940804877
 40
0.5178872794341798
 40
0.5538801013063941
 40
0.749106783260581
 40
0.7715831208175764
 40
1.0
 40
1.0
 40
1.0
 40
1.0
 10
377.5898151762223
 20
826.0015719621622
 30
0.0
 10
377.5877253103965
 20
825.9249307235375
 30
0.0
 10
377.5832043511373
 20
825.759134473315
 30
0.0
 10
377.6575502372808
 20
825.5244205846154
 30
0.0
 10
377.7688441385865
 20
825.3780097331387
 30
0.0
 10
377.9065557444337
 20
825.2597157180767
 30
0.0
 10
378.0154564457472
 20
825.2053777788677
 30
0.0
 10
378.2145997226291
 20
825.1503317223991
 30
0.0
 10
378.3316414109894
 20
825.1518352857221
 30
0.0
 10
378.4381978876328
 20
825.1532041519129
 30
0.0
  0
LINE
  5
15A
330
1F
100
AcDbEntity
  8
0
  6
PHANTOM
 62
     8
370
     0
100
AcDbLine
 10
377.1656387217
 20
949.1222747653
 30
0.0
 11
377.5898151762
 21
949.1222747653
 31
0.0
  0
LINE
  5
15B
330
1F
100
AcDbEntity
  8
0
  6
PHANTOM
 62
     8
370
     0
100
AcDbLine
 10
377.5898151762
 20
949.1222747653
 30
0.0
 11
377.5898151762
 21
826.0015719622
 31
0.0
  0
LINE
  5
15C
330
1F
100
AcDbEntity
  8
0
  6
PHANTOM
 62
     8
370
     0
100
AcDbLine
 10
1861.3072269327
 20
826.0015719622
 30
0.0
 11
1861.3072269327
 21
949.1222747653
 31
0.0
  0
LINE
  5
15D
330
1F
100
AcDbEntity
  8
0
  6
PHANTOM
 62
     8
370
     0
100
AcDbLine
 10
378.4381978876
 20
950.3948227554
 30
0.0
 11
378.4381978876
 21
949.9706407129
 31
0.0
  0
SPLINE
  5
15E
330
1F
100
AcDbEntity
  8
0
  6
PHANTOM
 62
     8
370
     0
100
AcDbSpline
210
0.0
220
0.0
230
1.0
 70
     8
 71
     3
 72
    14
 73
    10
 74
     0
 42
0.000000001
 43
0.00000001
 40
0.0
 40
0.0
 40
0.0
 40
0.0
 40
0.1656975376411827
 40
0.3584496553580614
 40
0.5178944266125386
 40
0.5538852582790424
 40
0.7491156994182255
 40
0.7715974502576536
 40
1.0
 40
1.0
 40
1.0
 40
1.0
 10
378.4381978876328
 20
949.9706407129013
 30
0.0
 10
378.3615570937786
 20
949.9727369442736
 30
0.0
 10
378.1957618349324
 20
949.9772716731758
 30
0.0
 10
377.961036894059
 20
949.9029288406408
 30
0.0
 10
377.8146432650862
 20
949.7916133921552
 30
0.0
 10
377.6963334118242
 20
949.6539080108704
 30
0.0
 10
377.6420414411865
 20
949.544988251127
 30
0.0
 10
377.5869002114838
 20
949.3458735869046
 30
0.0
 10
377.5884260594997
 20
949.2288300378651
 30
0.0
 10
377.5898151762223
 20
949.1222747652971
 30
0.0
  0
LINE
  5
15F
330
1F
100
AcDbEntity
  8
0
  6
PHANTOM
 62
     8
370
     0
100
AcDbLine
 10
1860.4589336283
 20
949.9706407129
 30
0.0
 11
378.4381978876
 21
949.9706407129
 31
0.0
  0
LWPOLYLINE
  5
160
330
1F
100
AcDbEntity
  8
0
  6
PHANTOM
 62
     8
370
     0
100
AcDbPolyline
 90
        6
 70
   128
 43
0.0
 10
384.3767278559
 20
831.9401317327
 10
382.9683893091
 20
830.3305679052
 10
381.6175990469
 20
828.7868374079
 10
380.3796701796
 20
827.3720615595
 10
379.3052368529
 20
826.1441164701
 10
378.4381978876
 20
825.1532041519
  0
LWPOLYLINE
  5
161
330
1F
100
AcDbEntity
  8
0
  6
PHANTOM
 62
     8
370
     0
100
AcDbPolyline
 90
        6
 70
   128
 43
0.0
 10
377.5898151762
 20
826.0015719622
 10
378.5807423956
 20
826.8686109274
 10
379.808687485
 20
827.9430740564
 10
381.223433531
 20
829.1809880226
 10
382.7671938307
 20
830.5317633837
 10
384.3767278559
 20
831.9401317327
  0
LWPOLYLINE
  5
162
330
1F
100
AcDbEntity
  8
0
  6
PHANTOM
 62
     8
370
     0
100
AcDbPolyline
 90
        6
 70
   128
 43
0.0
 10
384.3767278559
 20
943.1837205826
 10
382.7671938307
 20
944.5920870691
 10
381.223433531
 20
945.9428531169
 10
379.808687485
 20
947.180778259
 10
378.5807423956
 20
948.2552339374
 10
377.5898151762
 20
949.1222747653
  0
LWPOLYLINE
  5
163
330
1F
100
AcDbEntity
  8
0
  6
PHANTOM
 62
     8
370
     0
100
AcDbPolyline
 90
        6
 70
   128
 43
0.0
 10
378.4381978876
 20
949.9706407129
 10
379.3052368529
 20
948.9797358453
 10
380.3796701796
 20
947.7517870306
 10
381.6175990469
 20
946.3370149075
 10
382.9683893091
 20
944.7932825475
 10
384.3767278559
 20
943.1837205826
  0
LWPOLYLINE
  5
164
330
1F
100
AcDbEntity
  8
0
  6
PHANTOM
 62
     8
370
     0
100
AcDbPolyline
 90
        6
 70
   128
 43
0.0
 10
1854.5202844507
 20
943.1837205826
 10
1855.9287422068
 20
944.7932825475
 10
1857.2795026667
 20
946.3370149075
 10
1858.5173719294
 20
947.7517870306
 10
1859.5918052561
 20
948.9797358453
 10
1860.4589336283
 20
949.9706407129
  0
LWPOLYLINE
  5
165
330
1F
100
AcDbEntity
  8
0
  6
PHANTOM
 62
     8
370
     0
100
AcDbPolyline
 90
        6
 70
   128
 43
0.0
 10
1861.3072269327
 20
949.1222747653
 10
1860.316359318
 20
948.2552339374
 10
1859.0883844263
 20
947.180778259
 10
1857.6736085779
 20
945.9428531169
 10
1856.1298482783
 20
944.5920870691
 10
1854.5202844507
 20
943.1837205826
  0
LWPOLYLINE
  5
166
330
1F
100
AcDbEntity
  8
0
  6
PHANTOM
 62
     8
370
     0
100
AcDbPolyline
 90
        6
 70
   128
 43
0.0
 10
1854.5202844507
 20
831.9401317327
 10
1856.1298482783
 20
830.5317633837
 10
1857.6736085779
 20
829.1809880226
 10
1859.0883844263
 20
827.9430740564
 10
1860.316359318
 20
826.8686109274
 10
1861.3072269327
 20
826.0015719622
  0
LWPOLYLINE
  5
167
330
1F
100
AcDbEntity
  8
0
  6
PHANTOM
 62
     8
370
     0
100
AcDbPolyline
 90
        6
 70
   128
 43
0.0
 10
1860.4589336283
 20
825.1532041519
 10
1859.5918052561
 20
826.1441164701
 10
1858.5173719294
 20
827.3720615595
 10
1857.2795026667
 20
828.7868374079
 10
1855.9287422068
 20
830.3305679052
 10
1854.5202844507
 20
831.9401317327
  0
LINE
  5
168
330
1F
100
AcDbEntity
  8
0
  6
PHANTOM
 62
     8
370
     0
100
AcDbLine
 10
1854.5202844507
 20
831.9401317327
 30
0.0
 11
1854.5202844507
 21
943.1837205826
 31
0.0
  0
LINE
  5
169
330
1F
100
AcDbEntity
  8
0
  6
PHANTOM
 62
     8
370
     0
100
AcDbLine
 10
384.3767278559
 20
831.9401317327
 30
0.0
 11
1854.5202844507
 21
831.9401317327
 31
0.0
  0
LINE
  5
16A
330
1F
100
AcDbEntity
  8
0
  6
PHANTOM
 62
     8
370
     0
100
AcDbLine
 10
1854.5202844507
 20
943.1837205826
 30
0.0
 11
384.3767278559
 21
943.1837205826
 31
0.0
  0
LINE
  5
16B
330
1F
100
AcDbEntity
  8
0
  6
PHANTOM
 62
     8
370
     0
100
AcDbLine
 10
384.3767278559
 20
943.1837205826
 30
0.0
 11
384.3767278559
 21
831.9401317327
 31
0.0
  0
ARC
  5
16C
330
1F
100
AcDbEntity
  8
0
  6
PHANTOM
 62
     8
370
     0
100
AcDbCircle
 10
1852.44853924
 20
834.0119237631
 30
0.0
 40
2.000000000000227
100
AcDbArc
 50
270.0
 51
0.0
  0
LINE
  5
16D
330
1F
100
AcDbEntity
  8
0
  6
PHANTOM
 62
     8
370
     0
100
AcDbLine
 10
1852.4485462076
 20
832.0119255274
 30
0.0
 11
1852.4485462076
 21
833.0119275539
 31
0.0
  0
LINE
  5
16E
330
1F
100
AcDbEntity
  8
0
  6
PHANTOM
 62
     8
370
     0
100
AcDbLine
 10
1853.4485929377
 20
834.0119295805
 30
0.0
 11
1854.4485204584
 21
834.0119295805
 31
0.0
  0
LINE
  5
16F
330
1F
100
AcDbEntity
  8
0
  6
PHANTOM
 62
     8
370
     0
100
AcDbLine
 10
386.4485257036
 20
942.1119228988
 30
0.0
 11
386.4485257036
 21
943.1119230627
 31
0.0
  0
LINE
  5
170
330
1F
100
AcDbEntity
  8
0
  6
PHANTOM
 62
     8
370
     0
100
AcDbLine
 10
386.4485257036
 20
943.1119230627
 30
0.0
 11
1852.4485462076
 21
943.1119230627
 31
0.0
  0
LINE
  5
171
330
1F
100
AcDbEntity
  8
0
  6
PHANTOM
 62
     8
370
     0
100
AcDbLine
 10
1852.4485462076
 20
942.1119228988
 30
0.0
 11
1852.4485462076
 21
943.1119230627
 31
0.0
  0
ARC
  5
172
330
1F
100
AcDbEntity
  8
0
  6
PHANTOM
 62
     8
370
     0
100
AcDbCircle
 10
386.44853924
 20
834.0119237631
 30
0.0
 40
2.0
100
AcDbArc
 50
180.0
 51
270.0
  0
LINE
  5
173
330
1F
100
AcDbEntity
  8
0
  6
PHANTOM
 62
     8
370
     0
100
AcDbLine
 10
384.4485514528
 20
834.0119295805
 30
0.0
 11
385.4485385782
 21
834.0119295805
 31
0.0
  0
LINE
  5
174
330
1F
100
AcDbEntity
  8
0
  6
PHANTOM
 62
     8
370
     0
100
AcDbLine
 10
386.4485257036
 20
832.0119255274
 30
0.0
 11
386.4485257036
 21
833.0119275539
 31
0.0
  0
LINE
  5
175
330
1F
100
AcDbEntity
  8
0
  6
PHANTOM
 62
     8
370
     0
100
AcDbLine
 10
1852.4485462076
 20
832.0119255274
 30
0.0
 11
386.4485257036
 21
832.0119255274
 31
0.0
  0
LINE
  5
176
330
1F
100
AcDbEntity
  8
0
  6
PHANTOM
 62
     8
370
     0
100
AcDbLine
 10
1854.4485204584
 20
941.1119245975
 30
0.0
 11
1854.4485204584
 21
834.0119295805
 31
0.0
  0
ARC
  5
177
330
1F
100
AcDbEntity
  8
0
  6
PHANTOM
 62
     8
370
     0
100
AcDbCircle
 10
1852.44853924
 20
941.1119237631
 30
0.0
 40
2.0
100
AcDbArc
 50
0.0
 51
90.0
  0
ARC
  5
178
330
1F
100
AcDbEntity
  8
0
  6
PHANTOM
 62
     8
370
     0
100
AcDbCircle
 10
386.44853924
 20
941.1119237631
 30
0.0
 40
2.0
100
AcDbArc
 50
90.0
 51
180.0
  0
LINE
  5
179
330
1F
100
AcDbEntity
  8
0
  6
PHANTOM
 62
     8
370
     0
100
AcDbLine
 10
384.4485514528
 20
834.0119295805
 30
0.0
 11
384.4485514528
 21
941.1119245975
 31
0.0
  0
LINE
  5
17A
330
1F
100
AcDbEntity
  8
0
  6
PHANTOM
 62
     8
370
     0
100
AcDbLine
 10
1853.4485929377
 20
941.1119245975
 30
0.0
 11
1854.4485204584
 21
941.1119245975
 31
0.0
  0
LINE
  5
17B
330
1F
100
AcDbEntity
  8
0
  6
PHANTOM
 62
     8
370
     0
100
AcDbLine
 10
384.4485514528
 20
941.1119245975
 30
0.0
 11
385.4485385782
 21
941.1119245975
 31
0.0
  0
LINE
  5
17C
330
1F
100
AcDbEntity
  8
0
  6
PHANTOM
 62
     8
370
     0
100
AcDbLine
 10
386.4485257036
 20
941.1119245975
 30
0.0
 11
385.4485385782
 21
941.1119245975
 31
0.0
  0
LINE
  5
17D
330
1F
100
AcDbEntity
  8
0
  6
PHANTOM
 62
     8
370
     0
100
AcDbLine
 10
386.4485257036
 20
942.1119228988
 30
0.0
 11
386.4485257036
 21
941.1119245975
 31
0.0
  0
LINE
  5
17E
330
1F
100
AcDbEntity
  8
0
  6
PHANTOM
 62
     8
370
     0
100
AcDbLine
 10
386.4485257036
 20
941.1119245975
 30
0.0
 11
386.4485257036
 21
834.0119295805
 31
0.0
  0
LINE
  5
17F
330
1F
100
AcDbEntity
  8
0
  6
PHANTOM
 62
     8
370
     0
100
AcDbLine
 10
386.4485257036
 20
834.0119295805
 30
0.0
 11
385.4485385782
 21
834.0119295805
 31
0.0
  0
LINE
  5
180
330
1F
100
AcDbEntity
  8
0
  6
PHANTOM
 62
     8
370
     0
100
AcDbLine
 10
1853.4485929377
 20
834.0119295805
 30
0.0
 11
1852.4485462076
 21
834.0119295805
 31
0.0
  0
LINE
  5
181
330
1F
100
AcDbEntity
  8
0
  6
PHANTOM
 62
     8
370
     0
100
AcDbLine
 10
1852.4485462076
 20
834.0119295805
 30
0.0
 11
1852.4485462076
 21
833.0119275539
 31
0.0
  0
LINE
  5
182
330
1F
100
AcDbEntity
  8
0
  6
PHANTOM
 62
     8
370
     0
100
AcDbLine
 10
1853.4485929377
 20
941.1119245975
 30
0.0
 11
1852.4485462076
 21
941.1119245975
 31
0.0
  0
LINE
  5
183
330
1F
100
AcDbEntity
  8
0
  6
PHANTOM
 62
     8
370
     0
100
AcDbLine
 10
1852.4485462076
 20
942.1119228988
 30
0.0
 11
1852.4485462076
 21
941.1119245975
 31
0.0
  0
LINE
  5
184
330
1F
100
AcDbEntity
  8
0
  6
PHANTOM
 62
     8
370
     0
100
AcDbLine
 10
386.4485257036
 20
834.0119295805
 30
0.0
 11
1852.4485462076
 21
834.0119295805
 31
0.0
  0
LINE
  5
185
330
1F
100
AcDbEntity
  8
0
  6
PHANTOM
 62
     8
370
     0
100
AcDbLine
 10
386.4485257036
 20
834.0119295805
 30
0.0
 11
386.4485257036
 21
833.0119275539
 31
0.0
  0
LINE
  5
186
330
1F
100
AcDbEntity
  8
0
  6
PHANTOM
 62
     8
370
     0
100
AcDbLine
 10
1852.4485462076
 20
834.0119295805
 30
0.0
 11
1852.4485462076
 21
941.1119245975
 31
0.0
  0
LINE
  5
187
330
1F
100
AcDbEntity
  8
0
  6
PHANTOM
 62
     8
370
     0
100
AcDbLine
 10
1852.4485462076
 20
941.1119245975
 30
0.0
 11
386.4485257036
 21
941.1119245975
 31
0.0
  0
SPLINE
  5
188
330
1F
100
AcDbEntity
  8
0
  6
PHANTOM
 62
     8
370
     0
100
AcDbSpline
210
0.0
220
0.0
230
1.0
 70
    24
 71
     3
 72
    13
 73
     9
 74
     0
 42
0.000000001
 43
0.00000001
 40
0.0
 40
0.0
 40
0.0
 40
0.0
 40
0.1653563648449236
 40
0.3306721066145624
 40
0.5007573509427045
 40
0.6708425791830299
 40
0.836320371151844
 40
1.0
 40
1.0
 40
1.0
 40
1.0
 10
803.9485391891932
 20
767.4330347269022
 30
0.0
 10
803.9485391891932
 20
768.4369899395525
 30
0.0
 10
803.9485391891932
 20
770.444653723315
 30
0.0
 10
803.9485391891932
 20
774.984436593632
 30
0.0
 10
803.9485391891932
 20
780.7738870355264
 30
0.0
 10
803.9485391891932
 20
787.8034217176481
 30
0.0
 10
803.9485391891932
 20
795.8059896822954
 30
0.0
 10
803.9485391891932
 20
801.9544797558733
 30
0.0
 10
803.9485391891932
 20
805.0119304149591
 30
0.0
  0
ARC
  5
189
330
1F
100
AcDbEntity
  8
0
  6
PHANTOM
 62
     8
370
     0
100
AcDbCircle
 10
803.9724228905
 20
770.4091548012
 30
0.0
 40
2.976215907416711
100
AcDbArc
 50
269.5402047382
 51
359.5323933509
  0
SPLINE
  5
18A
330
1F
100
AcDbEntity
  8
0
  6
PHANTOM
 62
     8
370
     0
100
AcDbSpline
210
0.0
220
0.0
230
1.0
 70
    24
 71
     3
 72
    13
 73
     9
 74
     0
 42
0.000000001
 43
0.00000001
 40
0.0
 40
0.0
 40
0.0
 40
0.0
 40
0.1610846502829222
 40
0.3288257511691258
 40
0.4962846786276459
 40
0.6643458998192655
 40
0.8324634028900273
 40
1.0
 40
1.0
 40
1.0
 40
1.0
 10
769.9485392040943
 20
805.0119304149591
 30
0.0
 10
769.9485392040943
 20
801.9959279196976
 30
0.0
 10
769.9485392040943
 20
795.839293601713
 30
0.0
 10
769.9485392040943
 20
787.8715488800252
 30
0.0
 10
769.9485392040943
 20
780.8941045884808
 30
0.0
 10
769.9485392040943
 20
775.1604113545341
 30
0.0
 10
769.9485392040943
 20
770.5267151104207
 30
0.0
 10
769.9485392040943
 20
768.4630710268403
 30
0.0
 10
769.9485392040943
 20
767.4330347269022
 30
0.0
  0
LINE
  5
18B
330
1F
100
AcDbEntity
  8
0
  6
PHANTOM
 62
     8
370
     0
100
AcDbLine
 10
803.9485391892
 20
767.4330347269
 30
0.0
 11
769.9485392041
 21
767.4330347269
 31
0.0
  0
ARC
  5
18C
330
1F
100
AcDbEntity
  8
0
  6
PHANTOM
 62
     8
370
     0
100
AcDbCircle
 10
769.9246533984
 20
770.4091507844
 30
0.0
 40
2.976211907722262
100
AcDbArc
 50
180.4675299483
 51
270.4598363934
  0
SPLINE
  5
18D
330
1F
100
AcDbEntity
  8
0
  6
PHANTOM
 62
     8
370
     0
100
AcDbSpline
210
0.0
220
0.0
230
1.0
 70
     8
 71
     3
 72
    13
 73
     9
 74
     0
 42
0.000000001
 43
0.00000001
 40
0.0
 40
0.0
 40
0.0
 40
0.0
 40
0.0143575997917871
 40
0.2531684905799311
 40
0.4381868056389856
 40
0.6232061801438793
 40
0.811603063674004
 40
1.0
 40
1.0
 40
1.0
 40
1.0
 10
809.6156035281157
 20
805.0119304149591
 30
0.0
 10
809.6155452938755
 20
804.8729934634953
 30
0.0
 10
809.6145184457313
 20
802.4231091654268
 30
0.0
 10
809.6135358670376
 20
799.0384835521443
 30
0.0
 10
809.61249361141
 20
794.7869817203157
 30
0.0
 10
809.6121574554068
 20
791.6445638886375
 30
0.0
 10
809.6122987543761
 20
789.1056985546923
 30
0.0
 10
809.612905649948
 20
788.0110409330082
 30
0.0
 10
809.6132090977763
 20
787.4637120454752
 30
0.0
  0
ARC
  5
18E
330
1F
100
AcDbEntity
  8
0
  6
PHANTOM
 62
     8
370
     0
100
AcDbCircle
 10
809.931650918
 20
784.4976240466
 30
0.0
 40
2.983133119685769
100
AcDbArc
 50
96.1278533455
 51
179.7805421685
  0
ARC
  5
18F
330
1F
100
AcDbEntity
  8
0
  6
PHANTOM
 62
     8
370
     0
100
AcDbCircle
 10
763.9654242528
 20
784.4976193602
 30
0.0
 40
2.983138222702032
100
AcDbArc
 50
0.2195474661
 51
83.8720769389
  0
SPLINE
  5
190
330
1F
100
AcDbEntity
  8
0
  6
PHANTOM
 62
     8
370
     0
100
AcDbSpline
210
0.0
220
0.0
230
1.0
 70
     8
 71
     3
 72
    13
 73
     9
 74
     0
 42
0.000000001
 43
0.00000001
 40
0.0
 40
0.0
 40
0.0
 40
0.0
 40
0.1051988771928963
 40
0.3157100287209392
 40
0.5274336864387645
 40
0.7385504843062812
 40
0.9496674354608992
 40
1.0
 40
1.0
 40
1.0
 40
1.0
 10
764.2838702268338
 20
787.4637120454752
 30
0.0
 10
764.2840528695227
 20
787.7526090790485
 30
0.0
 10
764.2846009944657
 20
788.6196115908681
 30
0.0
 10
764.2849515125391
 20
790.7355985591306
 30
0.0
 10
764.284719602635
 20
794.0987520877982
 30
0.0
 10
764.2837313220416
 20
798.4145480613192
 30
0.0
 10
764.2826491930944
 20
802.066983263754
 30
0.0
 10
764.2816425756076
 20
804.5365126409755
 30
0.0
 10
764.2814487881398
 20
805.0119304149591
 30
0.0
  0
LWPOLYLINE
  5
191
330
1F
100
AcDbEntity
  8
0
  6
PHANTOM
 62
     8
370
     0
100
AcDbPolyline
 90
       11
 70
   128
 43
0.0
 10
834.4537977792
 20
805.011930415
 10
834.3388632602
 20
804.7227137773
 10
832.932215064
 20
801.4048212259
 10
831.4947857253
 20
798.4184348076
 10
830.029846049
 20
795.7703792541
 10
828.5407287731
 20
793.4666597336
 10
827.0308225147
 20
791.5125363558
 10
825.5035622242
 20
789.9124198645
 10
823.9624233648
 20
788.6699908464
 10
822.4109118419
 20
787.78805072
 10
820.8525581249
 20
787.2686260431
  0
SPLINE
  5
192
330
1F
100
AcDbEntity
  8
0
  6
PHANTOM
 62
     8
370
     0
100
AcDbSpline
210
0.0
220
0.0
230
1.0
 70
     8
 71
     3
 72
    11
 73
     7
 74
     0
 42
0.000000001
 43
0.00000001
 40
0.0
 40
0.0
 40
0.0
 40
0.0
 40
0.2971664482825447
 40
0.6040378914957769
 40
0.8011289535482062
 40
1.0
 40
1.0
 40
1.0
 40
1.0
 10
809.6132090977763
 20
787.4637120454752
 30
0.0
 10
811.1213604187404
 20
787.4595921215099
 30
0.0
 10
814.1869169418156
 20
787.4512177232575
 30
0.0
 10
817.2774269711127
 20
787.4234898261362
 30
0.0
 10
819.4484770028779
 20
787.3875204073088
 30
0.0
 10
820.383130555678
 20
787.3083760913958
 30
0.0
 10
820.8525581249406
 20
787.2686260431253
 30
0.0
  0
SPLINE
  5
193
330
1F
100
AcDbEntity
  8
0
  6
PHANTOM
 62
     8
370
     0
100
AcDbSpline
210
0.0
220
0.0
230
1.0
 70
     8
 71
     3
 72
    11
 73
     7
 74
     0
 42
0.000000001
 43
0.00000001
 40
0.0
 40
0.0
 40
0.0
 40
0.0
 40
0.3073172641362202
 40
0.6220080860004357
 40
0.8098079963266651
 40
1.0
 40
1.0
 40
1.0
 40
1.0
 10
753.0445092088913
 20
787.2686260431253
 30
0.0
 10
753.7932989487889
 20
787.3204253790436
 30
0.0
 10
755.3088443713331
 20
787.4252668882941
 30
0.0
 10
758.2872529165467
 20
787.4382139230469
 30
0.0
 10
761.3538871523235
 20
787.4562020441426
 30
0.0
 10
763.3030973919523
 20
787.4611981724904
 30
0.0
 10
764.2838702268338
 20
787.4637120454752
 30
0.0
  0
LWPOLYLINE
  5
194
330
1F
100
AcDbEntity
  8
0
  6
PHANTOM
 62
     8
370
     0
100
AcDbPolyline
 90
       11
 70
   128
 43
0.0
 10
739.4430570967
 20
805.011930415
 10
739.5579972036
 20
804.7226988762
 10
740.9646668203
 20
801.4048063248
 10
742.402122236
 20
798.4184348076
 10
743.8670777447
 20
795.770364353
 10
745.356217838
 20
793.4666597336
 10
746.8661525018
 20
791.5125214546
 10
748.3934321172
 20
789.9124198645
 10
749.9345921643
 20
788.6699908464
 10
751.4861308701
 20
787.78805072
 10
753.0445092089
 20
787.2686260431
  0
SPLINE
  5
195
330
1F
100
AcDbEntity
  8
0
  6
PHANTOM
 62
     8
370
     0
100
AcDbSpline
210
0.0
220
0.0
230
1.0
 70
     8
 71
     3
 72
    14
 73
    10
 74
     0
 42
0.000000001
 43
0.00000001
 40
0.0
 40
0.0
 40
0.0
 40
0.0
 40
0.0370785582144811
 40
0.1973820202200303
 40
0.3588607802400283
 40
0.5192490985046905
 40
0.6789909273079832
 40
0.8389668061939008
 40
1.0
 40
1.0
 40
1.0
 40
1.0
 10
872.7863886124825
 20
805.0119304149591
 30
0.0
 10
872.2654415943794
 20
804.5463216074637
 30
0.0
 10
869.4922600087849
 20
802.0677245022562
 30
0.0
 10
864.185647120782
 20
798.4438347514333
 30
0.0
 10
856.9256587617391
 20
794.2287108470041
 30
0.0
 10
849.4821320861193
 20
791.0264472663401
 30
0.0
 10
841.945167644018
 20
788.7646652472631
 30
0.0
 10
834.3172064309588
 20
787.3668567227033
 30
0.0
 10
829.1988436172586
 20
787.1970889182743
 30
0.0
 10
826.6312329761123
 20
787.1119254320108
 30
0.0
  0
SPLINE
  5
196
330
1F
100
AcDbEntity
  8
0
  6
PHANTOM
 62
     8
370
     0
100
AcDbSpline
210
0.0
220
0.0
230
1.0
 70
     8
 71
     3
 72
     9
 73
     5
 74
     0
 42
0.000000001
 43
0.00000001
 40
0.0
 40
0.0
 40
0.0
 40
0.0
 40
0.4970033128030624
 40
1.0
 40
1.0
 40
1.0
 40
1.0
 10
820.8525581249406
 20
787.2686260431253
 30
0.0
 10
821.134211058066
 20
787.2238943139853
 30
0.0
 10
821.7009133835231
 20
787.1338914347537
 30
0.0
 10
821.8645712493269
 20
787.1192766302569
 30
0.0
 10
821.94689061366
 20
787.1119254320108
 30
0.0
  0
SPLINE
  5
197
330
1F
100
AcDbEntity
  8
0
  6
PHANTOM
 62
     8
370
     0
100
AcDbSpline
210
0.0
220
0.0
230
1.0
 70
     8
 71
     3
 72
    14
 73
    10
 74
     0
 42
0.000000001
 43
0.00000001
 40
0.0
 40
0.0
 40
0.0
 40
0.0
 40
0.1610951257027098
 40
0.3211317867333258
 40
0.4809350199197128
 40
0.641388155650771
 40
0.8029283090704317
 40
0.9632902294989063
 40
1.0
 40
1.0
 40
1.0
 40
1.0
 10
747.2657941944336
 20
787.1119254320108
 30
0.0
 10
744.7088970631497
 20
787.1972471402015
 30
0.0
 10
739.6119027209508
 20
787.3673299560467
 30
0.0
 10
732.015973218946
 20
788.7671264221234
 30
0.0
 10
724.5107625924339
 20
791.0315303921362
 30
0.0
 10
717.0988593043708
 20
794.2367186920063
 30
0.0
 10
709.8701080423704
 20
798.4550154794651
 30
0.0
 10
704.5918953796453
 20
802.0765504569695
 30
0.0
 10
701.8361851280224
 20
804.5509994072912
 30
0.0
 10
701.3228618271088
 20
805.0119304149591
 30
0.0
  0
SPLINE
  5
198
330
1F
100
AcDbEntity
  8
0
  6
PHANTOM
 62
     8
370
     0
100
AcDbSpline
210
0.0
220
0.0
230
1.0
 70
     8
 71
     3
 72
     9
 73
     5
 74
     0
 42
0.000000001
 43
0.00000001
 40
0.0
 40
0.0
 40
0.0
 40
0.0
 40
0.4969906335315666
 40
1.0
 40
1.0
 40
1.0
 40
1.0
 10
751.950190282557
 20
787.1119254320108
 30
0.0
 10
752.0311137281442
 20
787.1191076012536
 30
0.0
 10
752.193940630962
 20
787.1335589183575
 30
0.0
 10
752.7598509951321
 20
787.2234233781414
 30
0.0
 10
753.0445092088913
 20
787.2686260431253
 30
0.0
  0
ARC
  5
199
330
1F
100
AcDbEntity
  8
0
  6
PHANTOM
 62
     8
370
     0
100
AcDbCircle
 10
803.9567802887
 20
769.3703731973
 30
0.0
 40
2.99177088812614
100
AcDbArc
 50
269.8421734695
 51
359.8411652088
  0
LINE
  5
19A
330
1F
100
AcDbEntity
  8
0
  6
PHANTOM
 62
     8
370
     0
100
AcDbLine
 10
803.9485391892
 20
766.3786136597
 30
0.0
 11
803.9485391892
 21
767.4330347269
 31
0.0
  0
LINE
  5
19B
330
1F
100
AcDbEntity
  8
0
  6
PHANTOM
 62
     8
370
     0
100
AcDbLine
 10
769.9485392041
 20
767.4330347269
 30
0.0
 11
769.9485392041
 21
766.3786136597
 31
0.0
  0
ARC
  5
19C
330
1F
100
AcDbEntity
  8
0
  6
PHANTOM
 62
     8
370
     0
100
AcDbCircle
 10
769.9402959845
 20
769.3703691978
 30
0.0
 40
2.991766894394883
100
AcDbArc
 50
180.1587584062
 51
270.1578673421
  0
LINE
  5
19D
330
1F
100
AcDbEntity
  8
0
  6
PHANTOM
 62
     8
370
     0
100
AcDbLine
 10
798.8441520102
 20
766.3786136597
 30
0.0
 11
803.9485391892
 21
766.3786136597
 31
0.0
  0
SPLINE
  5
19E
330
1F
100
AcDbEntity
  8
0
  6
PHANTOM
 62
     8
370
     0
100
AcDbSpline
210
0.0
220
0.0
230
1.0
 70
     8
 71
     3
 72
    12
 73
     8
 74
     0
 42
0.000000001
 43
0.00000001
 40
0.0
 40
0.0
 40
0.0
 40
0.0
 40
0.1531065017307971
 40
0.3621092593728097
 40
0.5768766757180273
 40
0.7855774373060123
 40
1.0
 40
1.0
 40
1.0
 40
1.0
 10
775.0529245204663
 20
766.3786136596643
 30
0.0
 10
776.2214281909572
 20
766.4256534469065
 30
0.0
 10
778.9850338766248
 20
766.5369063481666
 30
0.0
 10
783.6248467525895
 20
766.646108734294
 30
0.0
 10
788.7769514044259
 20
766.6620571002826
 30
0.0
 10
793.9497045349784
 20
766.5708181724533
 30
0.0
 10
797.1980274063754
 20
766.44325682502
 30
0.0
 10
798.8441520101761
 20
766.3786136596643
 30
0.0
  0
LINE
  5
19F
330
1F
100
AcDbEntity
  8
0
  6
PHANTOM
 62
     8
370
     0
100
AcDbLine
 10
769.9485392041
 20
766.3786136597
 30
0.0
 11
775.0529245205
 21
766.3786136597
 31
0.0
  0
SPLINE
  5
1A0
330
1F
100
AcDbEntity
  8
0
  6
PHANTOM
 62
     8
370
     0
100
AcDbSpline
210
0.0
220
0.0
230
1.0
 70
     8
 71
     3
 72
    12
 73
     8
 74
     0
 42
0.000000001
 43
0.00000001
 40
0.0
 40
0.0
 40
0.0
 40
0.0
 40
0.2086010673209573
 40
0.4232344980215328
 40
0.6318480909264629
 40
0.8466246381039534
 40
0.9999999999999999
 40
0.9999999999999999
 40
0.9999999999999999
 40
0.9999999999999999
 10
797.7236238039469
 20
763.9160924642526
 30
0.0
 10
796.2769929316062
 20
763.980887135481
 30
0.0
 10
793.3418972538091
 20
764.1123502219552
 30
0.0
 10
788.6941374507359
 20
764.2073390599852
 30
0.0
 10
783.9790565335314
 20
764.192326942164
 30
0.0
 10
779.7700424230123
 20
764.080802170971
 30
0.0
 10
777.2311710143221
 20
763.9645317545485
 30
0.0
 10
776.1734545893406
 20
763.9160924642526
 30
0.0
  0
ARC
  5
1A1
330
1F
100
AcDbEntity
  8
0
  6
PHANTOM
 62
     8
370
     0
100
AcDbCircle
 10
773.2937422445
 20
764.0919264287
 30
0.0
 40
2.885075522775957
100
AcDbArc
 50
356.5058830248
 51
52.4283841488
  0
ARC
  5
1A2
330
1F
100
AcDbEntity
  8
0
  6
PHANTOM
 62
     8
370
     0
100
AcDbCircle
 10
800.6033417704
 20
764.0919252014
 30
0.0
 40
2.885081059107387
100
AcDbArc
 50
127.5717187931
 51
183.4940858418
  0
LINE
  5
1A3
330
1F
100
AcDbEntity
  8
0
  6
PHANTOM
 62
     8
370
     0
100
AcDbLine
 10
802.3460664518
 20
763.7910121172
 30
0.0
 11
797.7236238039
 21
763.9160924643
 31
0.0
  0
SPLINE
  5
1A4
330
1F
100
AcDbEntity
  8
0
  6
PHANTOM
 62
     8
370
     0
100
AcDbSpline
210
0.0
220
0.0
230
1.0
 70
     8
 71
     3
 72
    13
 73
     9
 74
     0
 42
0.000000001
 43
0.00000001
 40
0.0
 40
0.0
 40
0.0
 40
0.0
 40
0.1142557249960747
 40
0.333334846310164
 40
0.5251300728557202
 40
0.6875477788149893
 40
0.8426608466235351
 40
1.0
 40
1.0
 40
1.0
 40
1.0
 10
802.3460664517617
 20
763.7910121171915
 30
0.0
 10
802.6667994473404
 20
763.8148112387207
 30
0.0
 10
803.6025204695609
 20
763.8842438778078
 30
0.0
 10
804.9971249438935
 20
764.5392220249711
 30
0.0
 10
806.2749726179886
 20
765.7386008489575
 30
0.0
 10
807.1506763856866
 20
767.1310479367493
 30
0.0
 10
807.7261513193157
 20
768.6361707043001
 30
0.0
 10
807.8124277116844
 20
769.6724191604486
 30
0.0
 10
807.85587324867
 20
770.1942347972833
 30
0.0
  0
SPLINE
  5
1A5
330
1F
100
AcDbEntity
  8
0
  6
PHANTOM
 62
     8
370
     0
100
AcDbSpline
210
0.0
220
0.0
230
1.0
 70
     8
 71
     3
 72
     9
 73
     5
 74
     0
 42
0.000000001
 43
0.00000001
 40
0.0
 40
0.0
 40
0.0
 40
0.0
 40
0.5250768885835404
 40
0.9999999999999999
 40
0.9999999999999999
 40
0.9999999999999999
 40
0.9999999999999999
 10
808.0118930629825
 20
785.0299947946512
 30
0.0
 10
807.9861187696935
 20
782.430536173451
 30
0.0
 10
807.9370320666803
 20
777.4799114597778
 30
0.0
 10
807.8820062708392
 20
772.5402121587765
 30
0.0
 10
807.85587324867
 20
770.1942347972833
 30
0.0
  0
SPLINE
  5
1A6
330
1F
100
AcDbEntity
  8
0
  6
PHANTOM
 62
     8
370
     0
100
AcDbSpline
210
0.0
220
0.0
230
1.0
 70
     8
 71
     3
 72
    11
 73
     7
 74
     0
 42
0.000000001
 43
0.00000001
 40
0.0
 40
0.0
 40
0.0
 40
0.0
 40
0.2707074587329112
 40
0.5494477921202742
 40
0.7726276905365893
 40
1.0
 40
1.0
 40
1.0
 40
1.0
 10
818.0192367836272
 20
784.7925000875437
 30
0.0
 10
817.5117983489414
 20
784.8476097032424
 30
0.0
 10
816.4818639360511
 20
784.9594642373288
 30
0.0
 10
814.0292450986575
 20
784.990635263461
 30
0.0
 10
811.2043450200543
 20
785.0175970818048
 30
0.0
 10
809.0826246204945
 20
785.0258366671166
 30
0.0
 10
808.0118930629825
 20
785.0299947946512
 30
0.0
  0
SPLINE
  5
1A7
330
1F
100
AcDbEntity
  8
0
  6
PHANTOM
 62
     8
370
     0
100
AcDbSpline
210
0.0
220
0.0
230
1.0
 70
     8
 71
     3
 72
     9
 73
     5
 74
     0
 42
0.000000001
 43
0.00000001
 40
0.0
 40
0.0
 40
0.0
 40
0.0
 40
0.4970612231747661
 40
1.0
 40
1.0
 40
1.0
 40
1.0
 10
818.9940658594852
 20
784.632863947674
 30
0.0
 10
818.9247251661786
 20
784.6401658501378
 30
0.0
 10
818.785223853114
 20
784.6548559971933
 30
0.0
 10
818.275564323865
 20
784.7464392955103
 30
0.0
 10
818.0192367836272
 20
784.7925000875437
 30
0.0
  0
LINE
  5
1A8
330
1F
100
AcDbEntity
  8
0
  6
PHANTOM
 62
     8
370
     0
100
AcDbLine
 10
818.9940658595
 20
784.6328639477
 30
0.0
 11
819.0114147692
 21
784.6328639477
 31
0.0
  0
LINE
  5
1A9
330
1F
100
AcDbEntity
  8
0
  6
PHANTOM
 62
     8
370
     0
100
AcDbLine
 10
754.9030118353
 20
784.6328639477
 30
0.0
 11
754.8856668837
 21
784.6328639477
 31
0.0
  0
SPLINE
  5
1AA
330
1F
100
AcDbEntity
  8
0
  6
PHANTOM
 62
     8
370
     0
100
AcDbSpline
210
0.0
220
0.0
230
1.0
 70
     8
 71
     3
 72
     9
 73
     5
 74
     0
 42
0.000000001
 43
0.00000001
 40
0.0
 40
0.0
 40
0.0
 40
0.0
 40
0.4970622474941667
 40
1.0
 40
1.0
 40
1.0
 40
1.0
 10
755.8778308994507
 20
784.7925000875437
 30
0.0
 10
755.6241495448346
 20
784.746910373207
 30
0.0
 10
755.1137882049924
 20
784.6551920530842
 30
0.0
 10
754.9735452911855
 20
784.6403357455805
 30
0.0
 10
754.9030118353104
 20
784.632863947674
 30
0.0
  0
SPLINE
  5
1AB
330
1F
100
AcDbEntity
  8
0
  6
PHANTOM
 62
     8
370
     0
100
AcDbSpline
210
0.0
220
0.0
230
1.0
 70
     8
 71
     3
 72
    11
 73
     7
 74
     0
 42
0.000000001
 43
0.00000001
 40
0.0
 40
0.0
 40
0.0
 40
0.0
 40
0.2231838625626163
 40
0.4505546062539237
 40
0.7213434102434785
 40
1.0
 40
1.0
 40
1.0
 40
1.0
 10
765.8851862616276
 20
785.0299947946512
 30
0.0
 10
764.8336257978232
 20
785.0259119593766
 30
0.0
 10
762.7107778226982
 20
785.017669695718
 30
0.0
 10
759.9119186214502
 20
784.9911520970709
 30
0.0
 10
757.4368438588943
 20
784.9596478901555
 30
0.0
 10
756.4024392729596
 20
784.8487453780864
 30
0.0
 10
755.8778308994507
 20
784.7925000875437
 30
0.0
  0
SPLINE
  5
1AC
330
1F
100
AcDbEntity
  8
0
  6
PHANTOM
 62
     8
370
     0
100
AcDbSpline
210
0.0
220
0.0
230
1.0
 70
     8
 71
     3
 72
     9
 73
     5
 74
     0
 42
0.000000001
 43
0.00000001
 40
0.0
 40
0.0
 40
0.0
 40
0.0
 40
0.4749231104453125
 40
0.9999999999999999
 40
0.9999999999999999
 40
0.9999999999999999
 40
0.9999999999999999
 10
766.0412051446175
 20
770.1942347972833
 30
0.0
 10
766.015072957421
 20
772.5402121609516
 30
0.0
 10
765.9600489195889
 20
777.4799114766338
 30
0.0
 10
765.9109611270494
 20
782.4305361761018
 30
0.0
 10
765.8851862616276
 20
785.0299947946512
 30
0.0
  0
SPLINE
  5
1AD
330
1F
100
AcDbEntity
  8
0
  6
PHANTOM
 62
     8
370
     0
100
AcDbSpline
210
0.0
220
0.0
230
1.0
 70
     8
 71
     3
 72
    13
 73
     9
 74
     0
 42
0.000000001
 43
0.00000001
 40
0.0
 40
0.0
 40
0.0
 40
0.0
 40
0.1291561703429387
 40
0.288629242924568
 40
0.4787190527235655
 40
0.720842769355878
 40
0.9368863242588608
 40
1.0
 40
1.0
 40
1.0
 40
1.0
 10
766.0412051446175
 20
770.1942347972833
 30
0.0
 10
766.0714523695062
 20
769.767909132787
 30
0.0
 10
766.1390467677996
 20
768.8151861350692
 30
0.0
 10
766.6650011435953
 20
767.2719947025893
 30
0.0
 10
767.6671105209341
 20
765.6307564611141
 30
0.0
 10
769.1670608011822
 20
764.3382004288516
 30
0.0
 10
770.5906167587514
 20
763.8350827499288
 30
0.0
 10
771.3739165793755
 20
763.7991386028857
 30
0.0
 10
771.5510100788807
 20
763.7910121171915
 30
0.0
  0
LINE
  5
1AE
330
1F
100
AcDbEntity
  8
0
  6
PHANTOM
 62
     8
370
     0
100
AcDbLine
 10
776.1734545893
 20
763.9160924643
 30
0.0
 11
771.5510100789
 21
763.7910121172
 31
0.0
  0
LINE
  5
1AF
330
1F
100
AcDbEntity
  8
0
  6
PHANTOM
 62
     8
370
     0
100
AcDbLine
 10
786.948540128
 20
757.5909816711
 30
0.0
 11
814.2432001151
 21
757.5909816711
 31
0.0
  0
LINE
  5
1B0
330
1F
100
AcDbEntity
  8
0
  6
PHANTOM
 62
     8
370
     0
100
AcDbLine
 10
759.6538782782
 20
757.5909816711
 30
0.0
 11
786.948540128
 21
757.5909816711
 31
0.0
  0
LWPOLYLINE
  5
1B1
330
1F
100
AcDbEntity
  8
0
  6
PHANTOM
 62
     8
370
     0
100
AcDbPolyline
 90
        9
 70
   128
 43
0.0
 10
771.5510100789
 20
763.7910121172
 10
771.4798235066
 20
764.299707958
 10
771.3614337809
 20
764.7766494244
 10
771.1994842357
 20
765.2071439712
 10
770.9989742107
 20
765.5779295652
 10
770.7660802371
 20
765.8775770157
 10
770.5079809494
 20
766.0968327015
 10
770.2326410181
 20
766.2289463966
 10
770.0183921225
 20
766.2683897703
  0
LINE
  5
1B2
330
1F
100
AcDbEntity
  8
0
  6
PHANTOM
 62
     8
370
     0
100
AcDbLine
 10
803.9485391892
 20
766.2683897703
 30
0.0
 11
803.9485391892
 21
766.3786136597
 31
0.0
  0
LINE
  5
1B3
330
1F
100
AcDbEntity
  8
0
  6
PHANTOM
 62
     8
370
     0
100
AcDbLine
 10
769.9485392041
 20
766.3786136597
 30
0.0
 11
769.9485392041
 21
766.2683897703
 31
0.0
  0
LWPOLYLINE
  5
1B4
330
1F
100
AcDbEntity
  8
0
  6
PHANTOM
 62
     8
370
     0
100
AcDbPolyline
 90
        9
 70
   128
 43
0.0
 10
802.3460664518
 20
763.7910121172
 10
802.4172530241
 20
764.299707958
 10
802.5356464751
 20
764.7766494244
 10
802.6975941576
 20
765.2071439712
 10
802.8981060452
 20
765.5779295652
 10
803.1310000188
 20
765.8775770157
 10
803.3890955813
 20
766.0968327015
 10
803.6644392378
 20
766.2289463966
 10
803.8786862708
 20
766.2683897703
  0
LWPOLYLINE
  5
1B5
330
1F
100
AcDbEntity
  8
0
  6
PHANTOM
 62
     8
370
     0
100
AcDbPolyline
 90
        9
 70
   128
 43
0.0
 10
766.0412051446
 20
770.1942347973
 10
766.2450642056
 20
770.1410823553
 10
766.4260499842
 20
770.0832658499
 10
766.582348264
 20
770.0213813274
 10
766.7124130494
 20
769.9560099333
 10
766.814940489
 20
769.8878371208
 10
766.8889135785
 20
769.8175185411
 10
766.9335947103
 20
769.7457545488
 10
766.948540575
 20
769.6732902019
  0
LWPOLYLINE
  5
1B6
330
1F
100
AcDbEntity
  8
0
  6
PHANTOM
 62
     8
370
     0
100
AcDbPolyline
 90
        9
 70
   128
 43
0.0
 10
807.8558732487
 20
770.1942347973
 10
807.652012325
 20
770.1410823553
 10
807.4710302717
 20
770.0832658499
 10
807.3147282667
 20
770.0213813274
 10
807.1846653439
 20
769.9560099333
 10
807.0821369729
 20
769.8878371208
 10
807.0081629522
 20
769.8175185411
 10
806.9634827516
 20
769.7457545488
 10
806.9485396809
 20
769.6732902019
  0
LWPOLYLINE
  5
1B7
330
1F
100
AcDbEntity
  8
0
  6
PHANTOM
 62
     8
370
     0
100
AcDbPolyline
 90
        9
 70
   128
 43
0.0
 10
766.948540575
 20
784.5090501993
 10
766.930856622
 20
784.5830046623
 10
766.8780133791
 20
784.656094858
 10
766.7906329698
 20
784.7274416178
 10
766.6697472996
 20
784.7962104767
 10
766.5167794294
 20
784.861596772
 10
766.3335361249
 20
784.9228256433
 10
766.1221743293
 20
784.979181835
 10
765.8851862616
 20
785.0299947947
  0
ARC
  5
1B8
330
1F
100
AcDbEntity
  8
0
  6
PHANTOM
 62
     8
370
     0
100
AcDbCircle
 10
763.1873000617
 20
784.9985317799
 30
0.0
 40
2.698069656050739
100
AcDbArc
 50
0.6681587382
 51
66.0193766968
  0
LWPOLYLINE
  5
1B9
330
1F
100
AcDbEntity
  8
0
  6
PHANTOM
 62
     8
370
     0
100
AcDbPolyline
 90
        9
 70
   128
 43
0.0
 10
808.011893063
 20
785.0299947947
 10
807.7749049954
 20
784.979181835
 10
807.5635431997
 20
784.9228256433
 10
807.3802989639
 20
784.861596772
 10
807.227332025
 20
784.7962104767
 10
807.1064463548
 20
784.7274416178
 10
807.0190668769
 20
784.656094858
 10
806.9662227027
 20
784.5830046623
 10
806.9485396809
 20
784.5090501993
  0
ARC
  5
1BA
330
1F
100
AcDbEntity
  8
0
  6
PHANTOM
 62
     8
370
     0
100
AcDbCircle
 10
810.7097743169
 20
784.9985350342
 30
0.0
 40
2.698064672423711
100
AcDbArc
 50
113.980555424
 51
179.331909141
  0
ARC
  5
1BB
330
1F
100
AcDbEntity
  8
0
  6
PHANTOM
 62
     8
370
     0
100
AcDbCircle
 10
820.9509180739
 20
784.2969920229
 30
0.0
 40
2.973261412943265
100
AcDbArc
 50
91.8957762512
 51
170.4066256555
  0
ARC
  5
1BC
330
1F
100
AcDbEntity
  8
0
  6
PHANTOM
 62
     8
370
     0
100
AcDbCircle
 10
752.9461437796
 20
784.2969853384
 30
0.0
 40
2.973268275071169
100
AcDbArc
 50
9.5934826333
 51
88.1041224589
  0
ARC
  5
1BD
330
1F
100
AcDbEntity
  8
0
  6
PHANTOM
 62
     8
370
     0
100
AcDbCircle
 10
821.9475268975
 20
784.113073319
 30
0.0
 40
2.998852180502005
100
AcDbArc
 50
90.0121567769
 51
170.0185190849
  0
ARC
  5
1BE
330
1F
100
AcDbEntity
  8
0
  6
PHANTOM
 62
     8
370
     0
100
AcDbCircle
 10
751.9495539634
 20
784.113077091
 30
0.0
 40
2.998848408563713
100
AcDbArc
 50
9.9814204242
 51
89.9878425325
  0
SPLINE
  5
1BF
330
1F
100
AcDbEntity
  8
0
  6
PHANTOM
 62
     8
370
     0
100
AcDbSpline
210
0.0
220
0.0
230
1.0
 70
    24
 71
     3
 72
    13
 73
     9
 74
     0
 42
0.000000001
 43
0.00000001
 40
0.0
 40
0.0
 40
0.0
 40
0.0
 40
0.1610846502829222
 40
0.3288257511691258
 40
0.4962846786276459
 40
0.6643458998192655
 40
0.8324634028900273
 40
1.0
 40
1.0
 40
1.0
 40
1.0
 10
1434.948527134154
 20
805.0119304149591
 30
0.0
 10
1434.948527134154
 20
801.9959279196976
 30
0.0
 10
1434.948527134154
 20
795.839293601713
 30
0.0
 10
1434.948527134154
 20
787.8715488800252
 30
0.0
 10
1434.948527134154
 20
780.8941045884808
 30
0.0
 10
1434.948527134154
 20
775.1604113545341
 30
0.0
 10
1434.948527134154
 20
770.5267151104207
 30
0.0
 10
1434.948527134154
 20
768.4630710268403
 30
0.0
 10
1434.948527134154
 20
767.4330347269022
 30
0.0
  0
ARC
  5
1C0
330
1F
100
AcDbEntity
  8
0
  6
PHANTOM
 62
     8
370
     0
100
AcDbCircle
 10
1434.9246243463
 20
770.4090959663
 30
0.0
 40
2.976157227694564
100
AcDbArc
 50
180.4664831666
 51
270.4601717855
  0
SPLINE
  5
1C1
330
1F
100
AcDbEntity
  8
0
  6
PHANTOM
 62
     8
370
     0
100
AcDbSpline
210
0.0
220
0.0
230
1.0
 70
    24
 71
     3
 72
    13
 73
     9
 74
     0
 42
0.000000001
 43
0.00000001
 40
0.0
 40
0.0
 40
0.0
 40
0.0
 40
0.1653563648449236
 40
0.3306721066145624
 40
0.5007573509427045
 40
0.6708425791830299
 40
0.836320371151844
 40
1.0
 40
1.0
 40
1.0
 40
1.0
 10
1468.948566234801
 20
767.4330347269022
 30
0.0
 10
1468.948566234801
 20
768.4369899395525
 30
0.0
 10
1468.948566234801
 20
770.444653723315
 30
0.0
 10
1468.948566234801
 20
774.984436593632
 30
0.0
 10
1468.948566234801
 20
780.7738870355264
 30
0.0
 10
1468.948566234801
 20
787.8034217176481
 30
0.0
 10
1468.948566234801
 20
795.8059896822954
 30
0.0
 10
1468.948566234801
 20
801.9544797558733
 30
0.0
 10
1468.948566234801
 20
805.0119304149591
 30
0.0
  0
LINE
  5
1C2
330
1F
100
AcDbEntity
  8
0
  6
PHANTOM
 62
     8
370
     0
100
AcDbLine
 10
1468.9485662348
 20
767.4330347269
 30
0.0
 11
1434.9485271342
 21
767.4330347269
 31
0.0
  0
ARC
  5
1C3
330
1F
100
AcDbEntity
  8
0
  6
PHANTOM
 62
     8
370
     0
100
AcDbCircle
 10
1468.9724354869
 20
770.4091300488
 30
0.0
 40
2.976191039983754
100
AcDbArc
 50
269.5404790723
 51
359.5328659757
  0
SPLINE
  5
1C4
330
1F
100
AcDbEntity
  8
0
  6
PHANTOM
 62
     8
370
     0
100
AcDbSpline
210
0.0
220
0.0
230
1.0
 70
     8
 71
     3
 72
    13
 73
     9
 74
     0
 42
0.000000001
 43
0.00000001
 40
0.0
 40
0.0
 40
0.0
 40
0.0
 40
0.0143575998138637
 40
0.253168490530524
 40
0.4381868056091893
 40
0.6232061801276398
 40
0.8116030636690678
 40
0.9999999999999999
 40
0.9999999999999999
 40
0.9999999999999999
 40
0.9999999999999999
 10
1474.61559704611
 20
805.0119304149591
 30
0.0
 10
1474.615536855026
 20
804.8729934635023
 30
0.0
 10
1474.614475501725
 20
802.4231091698008
 30
0.0
 10
1474.613585281253
 20
799.0384835495154
 30
0.0
 10
1474.612506199627
 20
794.7869817208484
 30
0.0
 10
1474.612184185449
 20
791.6445638885212
 30
0.0
 10
1474.612307924522
 20
789.1056985547656
 30
0.0
 10
1474.612911215026
 20
788.0110409330264
 30
0.0
 10
1474.613212860319
 20
787.4637120454752
 30
0.0
  0
ARC
  5
1C5
330
1F
100
AcDbEntity
  8
0
  6
PHANTOM
 62
     8
370
     0
100
AcDbCircle
 10
1474.9316574912
 20
784.4976055269
 30
0.0
 40
2.98315183365942
100
AcDbArc
 50
96.1278690494
 51
179.7801878435
  0
ARC
  5
1C6
330
1F
100
AcDbEntity
  8
0
  6
PHANTOM
 62
     8
370
     0
100
AcDbCircle
 10
1428.9653631428
 20
784.4975399303
 30
0.0
 40
2.983224820440256
100
AcDbArc
 50
0.2210666352
 51
83.8708764719
  0
SPLINE
  5
1C7
330
1F
100
AcDbEntity
  8
0
  6
PHANTOM
 62
     8
370
     0
100
AcDbSpline
210
0.0
220
0.0
230
1.0
 70
     8
 71
     3
 72
    13
 73
     9
 74
     0
 42
0.000000001
 43
0.00000001
 40
0.0
 40
0.0
 40
0.0
 40
0.0
 40
0.1051988771431103
 40
0.3157100286784761
 40
0.5274336863894392
 40
0.7385504842745839
 40
0.9496674353558464
 40
1.0
 40
1.0
 40
1.0
 40
1.0
 10
1429.283880508635
 20
787.4637120454752
 30
0.0
 10
1429.284049568465
 20
787.7526090790968
 30
0.0
 10
1429.284556930191
 20
788.6196115913554
 30
0.0
 10
1429.284947998001
 20
790.7355985587063
 30
0.0
 10
1429.284736195662
 20
794.0987520887637
 30
0.0
 10
1429.283685631685
 20
798.4145480582356
 30
0.0
 10
1429.282707587937
 20
802.0669832692528
 30
0.0
 10
1429.281641881155
 20
804.5365126410794
 30
0.0
 10
1429.281436718199
 20
805.0119304149591
 30
0.0
  0
LWPOLYLINE
  5
1C8
330
1F
100
AcDbEntity
  8
0
  6
PHANTOM
 62
     8
370
     0
100
AcDbPolyline
 90
       11
 70
   128
 43
0.0
 10
1499.4538061983
 20
805.011930415
 10
1499.3388884432
 20
804.7227137773
 10
1497.9322188265
 20
801.4048212259
 10
1496.4947932131
 20
798.4184348076
 10
1495.0298302538
 20
795.7703792541
 10
1493.5407274134
 20
793.4666597336
 10
1492.0308225519
 20
791.5125363558
 10
1490.5035727389
 20
789.9124198645
 10
1488.9624350435
 20
788.6699908464
 10
1487.41092614
 20
787.78805072
 10
1485.8525627024
 20
787.2686260431
  0
SPLINE
  5
1C9
330
1F
100
AcDbEntity
  8
0
  6
PHANTOM
 62
     8
370
     0
100
AcDbSpline
210
0.0
220
0.0
230
1.0
 70
     8
 71
     3
 72
    11
 73
     7
 74
     0
 42
0.000000001
 43
0.00000001
 40
0.0
 40
0.0
 40
0.0
 40
0.0
 40
0.297167025412779
 40
0.6040372177168966
 40
0.8011288427295967
 40
1.0
 40
1.0
 40
1.0
 40
1.0
 10
1474.613212860319
 20
787.4637120454752
 30
0.0
 10
1476.121375711028
 20
787.4595921511906
 30
0.0
 10
1479.186946296933
 20
787.451217838874
 30
0.0
 10
1482.27738628176
 20
787.4234896423413
 30
0.0
 10
1484.448481836487
 20
787.387520519452
 30
0.0
 10
1485.383135576372
 20
787.3083760986078
 30
0.0
 10
1485.852562702391
 20
787.2686260431253
 30
0.0
  0
SPLINE
  5
1CA
330
1F
100
AcDbEntity
  8
0
  6
PHANTOM
 62
     8
370
     0
100
AcDbSpline
210
0.0
220
0.0
230
1.0
 70
     8
 71
     3
 72
    11
 73
     7
 74
     0
 42
0.000000001
 43
0.00000001
 40
0.0
 40
0.0
 40
0.0
 40
0.0
 40
0.307317097199678
 40
0.6220067841834644
 40
0.8098071251035314
 40
1.0
 40
1.0
 40
1.0
 40
1.0
 10
1418.044530666563
 20
787.2686260431253
 30
0.0
 10
1418.793321463818
 20
787.3204253731345
 30
0.0
 10
1420.308866677769
 20
787.4252667079496
 30
0.0
 10
1423.287218210171
 20
787.4382140062493
 30
0.0
 10
1426.353874140116
 20
787.4562020519171
 30
0.0
 10
1428.303099134712
 20
787.4611981731919
 30
0.0
 10
1429.283880508635
 20
787.4637120454752
 30
0.0
  0
LWPOLYLINE
  5
1CB
330
1F
100
AcDbEntity
  8
0
  6
PHANTOM
 62
     8
370
     0
100
AcDbPolyline
 90
       11
 70
   128
 43
0.0
 10
1404.443048752
 20
805.011930415
 10
1404.5580261118
 20
804.7226988762
 10
1405.9646957285
 20
801.4048063248
 10
1407.4021213419
 20
798.4184348076
 10
1408.8670843012
 20
795.770364353
 10
1410.3562467463
 20
793.4666597336
 10
1411.8661516077
 20
791.5125214546
 10
1413.3934610255
 20
789.9124198645
 10
1414.9345987208
 20
788.6699908464
 10
1416.4861076243
 20
787.78805072
 10
1418.0445306666
 20
787.2686260431
  0
SPLINE
  5
1CC
330
1F
100
AcDbEntity
  8
0
  6
PHANTOM
 62
     8
370
     0
100
AcDbSpline
210
0.0
220
0.0
230
1.0
 70
     8
 71
     3
 72
    14
 73
    10
 74
     0
 42
0.000000001
 43
0.00000001
 40
0.0
 40
0.0
 40
0.0
 40
0.0
 40
0.0370784340918956
 40
0.1973820247429753
 40
0.3588607049588135
 40
0.5192491996370722
 40
0.6789907383039222
 40
0.8389666170276276
 40
1.0
 40
1.0
 40
1.0
 40
1.0
 10
1537.786387718413
 20
805.0119304149591
 30
0.0
 10
1537.265447538424
 20
804.5463214330947
 30
0.0
 10
1534.492293007642
 20
802.0677150455881
 30
0.0
 10
1529.185631491191
 20
798.4438421618519
 30
0.0
 10
1521.925679692911
 20
794.22870526479
 30
0.0
 10
1514.482108886621
 20
791.0264532771234
 30
0.0
 10
1506.945198383443
 20
788.7646622301068
 30
0.0
 10
1499.317230039556
 20
787.36685670178
 30
0.0
 10
1494.19885253071
 20
787.1970889445141
 30
0.0
 10
1491.631233013365
 20
787.1119254320108
 30
0.0
  0
SPLINE
  5
1CD
330
1F
100
AcDbEntity
  8
0
  6
PHANTOM
 62
     8
370
     0
100
AcDbSpline
210
0.0
220
0.0
230
1.0
 70
     8
 71
     3
 72
     9
 73
     5
 74
     0
 42
0.000000001
 43
0.00000001
 40
0.0
 40
0.0
 40
0.0
 40
0.0
 40
0.4970035246566943
 40
1.0
 40
1.0
 40
1.0
 40
1.0
 10
1485.852562702391
 20
787.2686260431253
 30
0.0
 10
1486.134221790786
 20
787.2238943141921
 30
0.0
 10
1486.700936259439
 20
787.1338914737412
 30
0.0
 10
1486.864587821544
 20
787.1192766412444
 30
0.0
 10
1486.946903980467
 20
787.1119254320108
 30
0.0
  0
SPLINE
  5
1CE
330
1F
100
AcDbEntity
  8
0
  6
PHANTOM
 62
     8
370
     0
100
AcDbSpline
210
0.0
220
0.0
230
1.0
 70
     8
 71
     3
 72
    14
 73
    10
 74
     0
 42
0.000000001
 43
0.00000001
 40
0.0
 40
0.0
 40
0.0
 40
0.0
 40
0.1610949821133266
 40
0.3211317228568572
 40
0.4809351997895591
 40
0.6413878706932263
 40
0.8029279922642233
 40
0.9632901378118232
 40
1.0
 40
1.0
 40
1.0
 40
1.0
 10
1412.265800750945
 20
787.1119254320108
 30
0.0
 10
1409.708909484599
 20
787.1972471575322
 30
0.0
 10
1404.611923304474
 20
787.3673301256937
 30
0.0
 10
1397.015985695762
 20
788.7671288981845
 30
0.0
 10
1389.51072098748
 20
791.0315220025333
 30
0.0
 10
1382.098897038082
 20
794.2367253187646
 30
0.0
 10
1374.870133797283
 20
798.4550183676271
 30
0.0
 10
1369.591902191656
 20
802.0765528712269
 30
0.0
 10
1366.836166987216
 20
804.550999440561
 30
0.0
 10
1366.322838581297
 20
805.0119304149591
 30
0.0
  0
SPLINE
  5
1CF
330
1F
100
AcDbEntity
  8
0
  6
PHANTOM
 62
     8
370
     0
100
AcDbSpline
210
0.0
220
0.0
230
1.0
 70
     8
 71
     3
 72
     9
 73
     5
 74
     0
 42
0.000000001
 43
0.00000001
 40
0.0
 40
0.0
 40
0.0
 40
0.0
 40
0.4969899202104651
 40
1.0
 40
1.0
 40
1.0
 40
1.0
 10
1416.950189388487
 20
787.1119254320108
 30
0.0
 10
1417.031100096755
 20
787.119107637377
 30
0.0
 10
1417.193901604344
 20
787.1335590479069
 30
0.0
 10
1417.759851942041
 20
787.2234233788482
 30
0.0
 10
1418.044530666563
 20
787.2686260431253
 30
0.0
  0
LINE
  5
1D0
330
1F
100
AcDbEntity
  8
0
  6
PHANTOM
 62
     8
370
     0
100
AcDbLine
 10
1434.9485271342
 20
767.4330347269
 30
0.0
 11
1434.9485271342
 21
766.3786136597
 31
0.0
  0
ARC
  5
1D1
330
1F
100
AcDbEntity
  8
0
  6
PHANTOM
 62
     8
370
     0
100
AcDbCircle
 10
1434.9402668525
 20
769.3703146851
 30
0.0
 40
2.991712429043597
100
AcDbArc
 50
180.1577172941
 51
270.1581969823
  0
ARC
  5
1D2
330
1F
100
AcDbEntity
  8
0
  6
PHANTOM
 62
     8
370
     0
100
AcDbCircle
 10
1468.9567927312
 20
769.3703486572
 30
0.0
 40
2.991746307862833
100
AcDbArc
 50
269.8424518423
 51
359.8416338813
  0
LINE
  5
1D3
330
1F
100
AcDbEntity
  8
0
  6
PHANTOM
 62
     8
370
     0
100
AcDbLine
 10
1468.9485662348
 20
766.3786136597
 30
0.0
 11
1468.9485662348
 21
767.4330347269
 31
0.0
  0
LINE
  5
1D4
330
1F
100
AcDbEntity
  8
0
  6
PHANTOM
 62
     8
370
     0
100
AcDbLine
 10
1463.8441436655
 20
766.3786136597
 30
0.0
 11
1468.9485662348
 21
766.3786136597
 31
0.0
  0
SPLINE
  5
1D5
330
1F
100
AcDbEntity
  8
0
  6
PHANTOM
 62
     8
370
     0
100
AcDbSpline
210
0.0
220
0.0
230
1.0
 70
     8
 71
     3
 72
    12
 73
     8
 74
     0
 42
0.000000001
 43
0.00000001
 40
0.0
 40
0.0
 40
0.0
 40
0.0
 40
0.1531064207494571
 40
0.3621091625242605
 40
0.5768756487471745
 40
0.785577072635523
 40
1.0
 40
1.0
 40
1.0
 40
1.0
 10
1440.052949703429
 20
766.3786136596643
 30
0.0
 10
1441.221450868393
 20
766.425653446984
 30
0.0
 10
1443.985051350873
 20
766.5369063775162
 30
0.0
 10
1448.624849630791
 20
766.6461086074293
 30
0.0
 10
1453.776944809322
 20
766.6620569428945
 30
0.0
 10
1458.949691987044
 20
766.5708182741175
 30
0.0
 10
1462.198018441652
 20
766.4432568280477
 30
0.0
 10
1463.844143665526
 20
766.3786136596643
 30
0.0
  0
LINE
  5
1D6
330
1F
100
AcDbEntity
  8
0
  6
PHANTOM
 62
     8
370
     0
100
AcDbLine
 10
1434.9485271342
 20
766.3786136597
 30
0.0
 11
1440.0529497034
 21
766.3786136597
 31
0.0
  0
SPLINE
  5
1D7
330
1F
100
AcDbEntity
  8
0
  6
PHANTOM
 62
     8
370
     0
100
AcDbSpline
210
0.0
220
0.0
230
1.0
 70
     8
 71
     3
 72
    12
 73
     8
 74
     0
 42
0.000000001
 43
0.00000001
 40
0.0
 40
0.0
 40
0.0
 40
0.0
 40
0.2086026766308656
 40
0.4232337011145881
 40
0.6318480646519334
 40
0.8466243728851194
 40
1.0
 40
1.0
 40
1.0
 40
1.0
 10
1462.723635948393
 20
763.9160924642526
 30
0.0
 10
1461.276991821299
 20
763.9808870046244
 30
0.0
 10
1458.341897420812
 20
764.1123485638743
 30
0.0
 10
1453.694140058147
 20
764.2073396532663
 30
0.0
 10
1448.979070084088
 20
764.1923269942683
 30
0.0
 10
1444.770049662267
 20
764.0808019497846
 30
0.0
 10
1442.231176379734
 20
763.9645317461881
 30
0.0
 10
1441.173457420561
 20
763.9160924642526
 30
0.0
  0
ARC
  5
1D8
330
1F
100
AcDbEntity
  8
0
  6
PHANTOM
 62
     8
370
     0
100
AcDbCircle
 10
1438.2938002537
 20
764.0919675039
 30
0.0
 40
2.885022951032627
100
AcDbArc
 50
356.5050020137
 51
52.4284034557
  0
ARC
  5
1D9
330
1F
100
AcDbEntity
  8
0
  6
PHANTOM
 62
     8
370
     0
100
AcDbCircle
 10
1465.6032931152
 20
764.0919675039
 30
0.0
 40
2.885022951032771
100
AcDbArc
 50
127.5715965444
 51
183.4949979863
  0
LINE
  5
1DA
330
1F
100
AcDbEntity
  8
0
  6
PHANTOM
 62
     8
370
     0
100
AcDbLine
 10
1467.34609536
 20
763.7910121172
 30
0.0
 11
1462.7236359484
 21
763.9160924643
 31
0.0
  0
SPLINE
  5
1DB
330
1F
100
AcDbEntity
  8
0
  6
PHANTOM
 62
     8
370
     0
100
AcDbSpline
210
0.0
220
0.0
230
1.0
 70
     8
 71
     3
 72
    13
 73
     9
 74
     0
 42
0.000000001
 43
0.00000001
 40
0.0
 40
0.0
 40
0.0
 40
0.0
 40
0.1142534018871181
 40
0.3333325410114781
 40
0.525127863087834
 40
0.6875472485485661
 40
0.8426600436128125
 40
1.0
 40
1.0
 40
1.0
 40
1.0
 10
1467.346095360014
 20
763.7910121171915
 30
0.0
 10
1467.666817078329
 20
763.8148118968446
 30
0.0
 10
1468.602517753824
 20
763.8842473875723
 30
0.0
 10
1469.997120872353
 20
764.5392199664866
 30
0.0
 10
1471.27494719098
 20
765.7386108214889
 30
0.0
 10
1472.150696333781
 20
767.1310359471739
 30
0.0
 10
1472.726123841717
 20
768.6361782131728
 30
0.0
 10
1472.812428965377
 20
769.6724204930116
 30
0.0
 10
1472.855889118407
 20
770.1942347972833
 30
0.0
  0
SPLINE
  5
1DC
330
1F
100
AcDbEntity
  8
0
  6
PHANTOM
 62
     8
370
     0
100
AcDbSpline
210
0.0
220
0.0
230
1.0
 70
     8
 71
     3
 72
     9
 73
     5
 74
     0
 42
0.000000001
 43
0.00000001
 40
0.0
 40
0.0
 40
0.0
 40
0.0
 40
0.5250768716846285
 40
0.9999999999999999
 40
0.9999999999999999
 40
0.9999999999999999
 40
0.9999999999999999
 10
1473.011874473784
 20
785.0299947946512
 30
0.0
 10
1472.986119502414
 20
782.4305361273216
 30
0.0
 10
1472.937069596088
 20
777.4799111664668
 30
0.0
 10
1472.882029115589
 20
772.5402121209273
 30
0.0
 10
1472.855889118407
 20
770.1942347972833
 30
0.0
  0
SPLINE
  5
1DD
330
1F
100
AcDbEntity
  8
0
  6
PHANTOM
 62
     8
370
     0
100
AcDbSpline
210
0.0
220
0.0
230
1.0
 70
     8
 71
     3
 72
    11
 73
     7
 74
     0
 42
0.000000001
 43
0.00000001
 40
0.0
 40
0.0
 40
0.0
 40
0.0
 40
0.2707072516026044
 40
0.5494478710822834
 40
0.772627780537349
 40
1.0
 40
1.0
 40
1.0
 40
1.0
 10
1483.019255912993
 20
784.7925000875437
 30
0.0
 10
1482.511817693266
 20
784.8476097077056
 30
0.0
 10
1481.481882780611
 20
784.9594643525104
 30
0.0
 10
1479.029236165622
 20
784.9906352266748
 30
0.0
 10
1476.204330666819
 20
785.0175970831436
 30
0.0
 10
1474.082607295052
 20
785.0258366681753
 30
0.0
 10
1473.011874473784
 20
785.0299947946512
 30
0.0
  0
SPLINE
  5
1DE
330
1F
100
AcDbEntity
  8
0
  6
PHANTOM
 62
     8
370
     0
100
AcDbSpline
210
0.0
220
0.0
230
1.0
 70
     8
 71
     3
 72
     9
 73
     5
 74
     0
 42
0.000000001
 43
0.00000001
 40
0.0
 40
0.0
 40
0.0
 40
0.0
 40
0.4970618661565606
 40
1.0
 40
1.0
 40
1.0
 40
1.0
 10
1483.994089878294
 20
784.632863947674
 30
0.0
 10
1483.924731676907
 20
784.6401658169428
 30
0.0
 10
1483.785195321155
 20
784.6548558782132
 30
0.0
 10
1483.275567285966
 20
784.746439294876
 30
0.0
 10
1483.019255912993
 20
784.7925000875437
 30
0.0
  0
LINE
  5
1DF
330
1F
100
AcDbEntity
  8
0
  6
PHANTOM
 62
     8
370
     0
100
AcDbLine
 10
1483.9940898783
 20
784.6328639477
 30
0.0
 11
1484.0114348299
 21
784.6328639477
 31
0.0
  0
LINE
  5
1E0
330
1F
100
AcDbEntity
  8
0
  6
PHANTOM
 62
     8
370
     0
100
AcDbLine
 10
1419.9030034907
 20
784.6328639477
 30
0.0
 11
1419.885658539
 21
784.6328639477
 31
0.0
  0
SPLINE
  5
1E1
330
1F
100
AcDbEntity
  8
0
  6
PHANTOM
 62
     8
370
     0
100
AcDbSpline
210
0.0
220
0.0
230
1.0
 70
     8
 71
     3
 72
     9
 73
     5
 74
     0
 42
0.000000001
 43
0.00000001
 40
0.0
 40
0.0
 40
0.0
 40
0.0
 40
0.497062157131884
 40
0.9999999999999999
 40
0.9999999999999999
 40
0.9999999999999999
 40
0.9999999999999999
 10
1420.877837455962
 20
784.7925000875437
 30
0.0
 10
1420.624157317899
 20
784.746910373119
 30
0.0
 10
1420.113798332765
 20
784.6551920361455
 30
0.0
 10
1419.973543136514
 20
784.6403357408054
 30
0.0
 10
1419.90300349066
 20
784.632863947674
 30
0.0
  0
SPLINE
  5
1E2
330
1F
100
AcDbEntity
  8
0
  6
PHANTOM
 62
     8
370
     0
100
AcDbSpline
210
0.0
220
0.0
230
1.0
 70
     8
 71
     3
 72
    11
 73
     7
 74
     0
 42
0.000000001
 43
0.00000001
 40
0.0
 40
0.0
 40
0.0
 40
0.0
 40
0.223183269729521
 40
0.4505543603561143
 40
0.7213432536370948
 40
0.9999999999999999
 40
0.9999999999999999
 40
0.9999999999999999
 40
0.9999999999999999
 10
1430.885159290526
 20
785.0299947946512
 30
0.0
 10
1429.833607783976
 20
785.0259119490343
 30
0.0
 10
1427.71077341118
 20
785.0176696471019
 30
0.0
 10
1424.911908107339
 20
784.9911521246753
 30
0.0
 10
1422.436843755766
 20
784.9596478720272
 30
0.0
 10
1421.402443628343
 20
784.848745376258
 30
0.0
 10
1420.877837455962
 20
784.7925000875437
 30
0.0
  0
SPLINE
  5
1E3
330
1F
100
AcDbEntity
  8
0
  6
PHANTOM
 62
     8
370
     0
100
AcDbSpline
210
0.0
220
0.0
230
1.0
 70
     8
 71
     3
 72
     9
 73
     5
 74
     0
 42
0.000000001
 43
0.00000001
 40
0.0
 40
0.0
 40
0.0
 40
0.0
 40
0.4749231099617827
 40
0.9999999999999999
 40
0.9999999999999999
 40
0.9999999999999999
 40
0.9999999999999999
 10
1431.041204250548
 20
770.1942347972833
 30
0.0
 10
1431.015068520261
 20
772.5402121620347
 30
0.0
 10
1430.960037022027
 20
777.4799114850264
 30
0.0
 10
1430.910939345713
 20
782.4305361774218
 30
0.0
 10
1430.885159290526
 20
785.0299947946512
 30
0.0
  0
SPLINE
  5
1E4
330
1F
100
AcDbEntity
  8
0
  6
PHANTOM
 62
     8
370
     0
100
AcDbSpline
210
0.0
220
0.0
230
1.0
 70
     8
 71
     3
 72
    13
 73
     9
 74
     0
 42
0.000000001
 43
0.00000001
 40
0.0
 40
0.0
 40
0.0
 40
0.0
 40
0.1291564760697835
 40
0.2886281371333007
 40
0.4787178535157613
 40
0.7208442161296935
 40
0.9368884743072062
 40
1.0
 40
1.0
 40
1.0
 40
1.0
 10
1431.041204250548
 20
770.1942347972833
 30
0.0
 10
1431.071463988582
 20
769.7679103802412
 30
0.0
 10
1431.139085931241
 20
768.8151960754719
 30
0.0
 10
1431.664955760169
 20
767.2719855581681
 30
0.0
 10
1432.667087147359
 20
765.6307472262248
 30
0.0
 10
1434.167062612924
 20
764.3382063381716
 30
0.0
 10
1435.590631001187
 20
763.8350852593221
 30
0.0
 10
1436.373913533179
 20
763.7991388741566
 30
0.0
 10
1436.55099800894
 20
763.7910121171915
 30
0.0
  0
LINE
  5
1E5
330
1F
100
AcDbEntity
  8
0
  6
PHANTOM
 62
     8
370
     0
100
AcDbLine
 10
1441.1734574206
 20
763.9160924643
 30
0.0
 11
1436.5509980089
 21
763.7910121172
 31
0.0
  0
LINE
  5
1E6
330
1F
100
AcDbEntity
  8
0
  6
PHANTOM
 62
     8
370
     0
100
AcDbLine
 10
1451.9485466845
 20
757.5909816711
 30
0.0
 11
1479.2431824572
 21
757.5909816711
 31
0.0
  0
LINE
  5
1E7
330
1F
100
AcDbEntity
  8
0
  6
PHANTOM
 62
     8
370
     0
100
AcDbLine
 10
1424.6538513071
 20
757.5909816711
 30
0.0
 11
1451.9485466845
 21
757.5909816711
 31
0.0
  0
LINE
  5
1E8
330
1F
100
AcDbEntity
  8
0
  6
PHANTOM
 62
     8
370
     0
100
AcDbLine
 10
1468.9485662348
 20
766.2683897703
 30
0.0
 11
1468.9485662348
 21
766.3786136597
 31
0.0
  0
LINE
  5
1E9
330
1F
100
AcDbEntity
  8
0
  6
PHANTOM
 62
     8
370
     0
100
AcDbLine
 10
1434.9485271342
 20
766.3786136597
 30
0.0
 11
1434.9485271342
 21
766.2683897703
 31
0.0
  0
LWPOLYLINE
  5
1EA
330
1F
100
AcDbEntity
  8
0
  6
PHANTOM
 62
     8
370
     0
100
AcDbPolyline
 90
        9
 70
   128
 43
0.0
 10
1467.34609536
 20
763.7910121172
 10
1467.4172633059
 20
764.299707958
 10
1467.5356381304
 20
764.7766494244
 10
1467.6975839503
 20
765.2071439712
 10
1467.8980939753
 20
765.5779295652
 10
1468.1310289271
 20
765.8775770157
 10
1468.3891170389
 20
766.0968327015
 10
1468.6644308932
 20
766.2289463966
 10
1468.8787095911
 20
766.2683897703
  0
LWPOLYLINE
  5
1EB
330
1F
100
AcDbEntity
  8
0
  6
PHANTOM
 62
     8
370
     0
100
AcDbPolyline
 90
        9
 70
   128
 43
0.0
 10
1436.5509980089
 20
763.7910121172
 10
1436.4798300631
 20
764.299707958
 10
1436.3614552386
 20
764.7766494244
 10
1436.1995094187
 20
765.2071439712
 10
1435.9989993937
 20
765.5779295652
 10
1435.7660644419
 20
765.8775770157
 10
1435.50797633
 20
766.0968327015
 10
1435.2326624758
 20
766.2289463966
 10
1435.0183837778
 20
766.2683897703
  0
LWPOLYLINE
  5
1EC
330
1F
100
AcDbEntity
  8
0
  6
PHANTOM
 62
     8
370
     0
100
AcDbPolyline
 90
        9
 70
   128
 43
0.0
 10
1431.0412042505
 20
770.1942347973
 10
1431.2450521357
 20
770.1410823553
 10
1431.4260714419
 20
770.0832658499
 10
1431.5823548205
 20
770.0213813274
 10
1431.7124121554
 20
769.9560099333
 10
1431.8149321444
 20
769.8878371208
 10
1431.8889015085
 20
769.8175185411
 10
1431.9336049921
 20
769.7457545488
 10
1431.948565758
 20
769.6732902019
  0
LWPOLYLINE
  5
1ED
330
1F
100
AcDbEntity
  8
0
  6
PHANTOM
 62
     8
370
     0
100
AcDbPolyline
 90
        9
 70
   128
 43
0.0
 10
1472.8558891184
 20
770.1942347973
 10
1472.6520412333
 20
770.1410823553
 10
1472.4710219271
 20
770.0832658499
 10
1472.3147385485
 20
770.0213813274
 10
1472.1846812136
 20
769.9560099333
 10
1472.0821612246
 20
769.8878371208
 10
1472.0081918604
 20
769.8175185411
 10
1471.9634883768
 20
769.7457545488
 10
1471.948527611
 20
769.6732902019
  0
LWPOLYLINE
  5
1EE
330
1F
100
AcDbEntity
  8
0
  6
PHANTOM
 62
     8
370
     0
100
AcDbPolyline
 90
        9
 70
   128
 43
0.0
 10
1431.948565758
 20
784.5090501993
 10
1431.9308631785
 20
784.5830046623
 10
1431.8779938585
 20
784.656094858
 10
1431.7906134493
 20
784.7274416178
 10
1431.6697352297
 20
784.7962104767
 10
1431.5167897112
 20
784.861596772
 10
1431.3335054285
 20
784.9228256433
 10
1431.1221473582
 20
784.979181835
 10
1430.8851592905
 20
785.0299947947
  0
ARC
  5
1EF
330
1F
100
AcDbEntity
  8
0
  6
PHANTOM
 62
     8
370
     0
100
AcDbCircle
 10
1428.1873897015
 20
784.9986252902
 30
0.0
 40
2.697951964239311
100
AcDbArc
 50
0.6662018953
 51
66.0201094257
  0
LWPOLYLINE
  5
1F0
330
1F
100
AcDbEntity
  8
0
  6
PHANTOM
 62
     8
370
     0
100
AcDbPolyline
 90
        9
 70
   128
 43
0.0
 10
1473.0118744738
 20
785.0299947947
 10
1472.7748864062
 20
784.979181835
 10
1472.5635283358
 20
784.9228256433
 10
1472.3803036577
 20
784.861596772
 10
1472.2273581393
 20
784.7962104767
 10
1472.106420315
 20
784.7274416178
 10
1472.0190399058
 20
784.656094858
 10
1471.9662301905
 20
784.5830046623
 10
1471.948527611
 20
784.5090501993
  0
ARC
  5
1F1
330
1F
100
AcDbEntity
  8
0
  6
PHANTOM
 62
     8
370
     0
100
AcDbCircle
 10
1475.7098572282
 20
784.9984581779
 30
0.0
 40
2.698167063284323
100
AcDbArc
 50
113.9814277713
 51
179.3303023336
  0
ARC
  5
1F2
330
1F
100
AcDbEntity
  8
0
  6
PHANTOM
 62
     8
370
     0
100
AcDbCircle
 10
1485.9508644619
 20
784.2970758353
 30
0.0
 40
2.973175721984286
100
AcDbArc
 50
91.8947089336
 51
170.4079845929
  0
ARC
  5
1F3
330
1F
100
AcDbEntity
  8
0
  6
PHANTOM
 62
     8
370
     0
100
AcDbCircle
 10
1417.9461605523
 20
784.2969976204
 30
0.0
 40
2.973256154855536
100
AcDbArc
 50
9.5932820754
 51
88.1040243981
  0
ARC
  5
1F4
330
1F
100
AcDbEntity
  8
0
  6
PHANTOM
 62
     8
370
     0
100
AcDbCircle
 10
1486.9475274372
 20
784.1131012877
 30
0.0
 40
2.998824209072874
100
AcDbArc
 50
90.0119118149
 51
170.0189676149
  0
ARC
  5
1F5
330
1F
100
AcDbEntity
  8
0
  6
PHANTOM
 62
     8
370
     0
100
AcDbCircle
 10
1416.9495659318
 20
784.1131012877
 30
0.0
 40
2.998824209072874
100
AcDbArc
 50
9.9810323851
 51
89.9880881851
  0
LINE
  5
1F6
330
1F
100
AcDbEntity
  8
0
  6
PHANTOM
 62
     8
370
     0
100
AcDbLine
 10
1929.4485681421
 20
983.1119240313
 30
0.0
 11
1929.4485681421
 21
995.1119241356
 31
0.0
  0
LINE
  5
1F7
330
1F
100
AcDbEntity
  8
0
  6
PHANTOM
 62
     8
370
     0
100
AcDbLine
 10
1929.4485681421
 20
983.1119240313
 30
0.0
 11
309.4485633738
 21
983.1119240313
 31
0.0
  0
LINE
  5
1F8
330
1F
100
AcDbEntity
  8
0
  6
PHANTOM
 62
     8
370
     0
100
AcDbLine
 10
309.4485633738
 20
983.1119240313
 30
0.0
 11
309.4485633738
 21
995.1119241356
 31
0.0
  0
LINE
  5
1F9
330
1F
100
AcDbEntity
  8
0
  6
PHANTOM
 62
     8
370
     0
100
AcDbLine
 10
309.4485633738
 20
983.1119240313
 30
0.0
 11
269.4485419161
 21
983.1119240313
 31
0.0
  0
LINE
  5
1FA
330
1F
100
AcDbEntity
  8
0
  6
PHANTOM
 62
     8
370
     0
100
AcDbLine
 10
1929.4485681421
 20
982.1119238674
 30
0.0
 11
1929.4485681421
 21
983.1119240313
 31
0.0
  0
LINE
  5
1FB
330
1F
100
AcDbEntity
  8
0
  6
PHANTOM
 62
     8
370
     0
100
AcDbLine
 10
309.4485633738
 20
982.1119238674
 30
0.0
 11
1929.4485681421
 21
982.1119238674
 31
0.0
  0
LINE
  5
1FC
330
1F
100
AcDbEntity
  8
0
  6
PHANTOM
 62
     8
370
     0
100
AcDbLine
 10
309.4485633738
 20
983.1119240313
 30
0.0
 11
309.4485633738
 21
982.1119238674
 31
0.0
  0
LINE
  5
1FD
330
1F
100
AcDbEntity
  8
0
  6
PHANTOM
 62
     8
370
     0
100
AcDbLine
 10
269.4485419161
 20
982.1119238674
 30
0.0
 11
309.4485633738
 21
982.1119238674
 31
0.0
  0
LINE
  5
1FE
330
1F
100
AcDbEntity
  8
0
  6
PHANTOM
 62
     8
370
     0
100
AcDbLine
 10
309.4485633738
 20
970.1119237631
 30
0.0
 11
309.4485633738
 21
982.1119238674
 31
0.0
  0
LINE
  5
1FF
330
1F
100
AcDbEntity
  8
0
  6
PHANTOM
 62
     8
370
     0
100
AcDbLine
 10
1929.4485681421
 20
970.1119237631
 30
0.0
 11
1929.4485681421
 21
982.1119238674
 31
0.0
  0
LINE
  5
200
330
1F
100
AcDbEntity
  8
0
  6
PHANTOM
 62
     8
370
     0
100
AcDbLine
 10
1969.4485299952
 20
983.1119240313
 30
0.0
 11
1929.4485681421
 21
983.1119240313
 31
0.0
  0
LINE
  5
201
330
1F
100
AcDbEntity
  8
0
  6
PHANTOM
 62
     8
370
     0
100
AcDbLine
 10
1929.4485681421
 20
982.1119238674
 30
0.0
 11
1969.4485299952
 21
982.1119238674
 31
0.0
  0
LINE
  5
202
330
1F
100
AcDbEntity
  8
0
  6
PHANTOM
 62
     8
370
     0
100
AcDbLine
 10
314.4485586054
 20
1007.2994255512
 30
0.0
 11
294.4231264956
 21
1007.2994255512
 31
0.0
  0
LINE
  5
203
330
1F
100
AcDbEntity
  8
0
  6
PHANTOM
 62
     8
370
     0
100
AcDbLine
 10
314.4485586054
 20
995.1119241356
 30
0.0
 11
314.4485586054
 21
1007.2994255512
 31
0.0
  0
LINE
  5
204
330
1F
100
AcDbEntity
  8
0
  6
PHANTOM
 62
     8
370
     0
100
AcDbLine
 10
1924.4485729105
 20
1007.2994255512
 30
0.0
 11
314.4485586054
 21
1007.2994255512
 31
0.0
  0
LINE
  5
205
330
1F
100
AcDbEntity
  8
0
  6
PHANTOM
 62
     8
370
     0
100
AcDbLine
 10
1924.4485729105
 20
995.1119241356
 30
0.0
 11
1924.4485729105
 21
1007.2994255512
 31
0.0
  0
LINE
  5
206
330
1F
100
AcDbEntity
  8
0
  6
PHANTOM
 62
     8
370
     0
100
AcDbLine
 10
1944.4739454157
 20
1007.2994255512
 30
0.0
 11
1924.4485729105
 21
1007.2994255512
 31
0.0
  0
LINE
  5
207
330
1F
100
AcDbEntity
  8
0
  6
PHANTOM
 62
     8
370
     0
100
AcDbLine
 10
1924.4485729105
 20
1010.111922869
 30
0.0
 11
1924.4485729105
 21
1007.2994255512
 31
0.0
  0
LINE
  5
208
330
1F
100
AcDbEntity
  8
0
  6
PHANTOM
 62
     8
370
     0
100
AcDbLine
 10
314.4485586054
 20
1010.111922869
 30
0.0
 11
314.4485586054
 21
1007.2994255512
 31
0.0
  0
SPLINE
  5
209
330
1F
100
AcDbEntity
  8
0
  6
PHANTOM
 62
     8
370
     0
100
AcDbSpline
210
0.0
220
0.0
230
1.0
 70
     8
 71
     3
 72
    12
 73
     8
 74
     0
 42
0.000000001
 43
0.00000001
 40
0.0
 40
0.0
 40
0.0
 40
0.0
 40
0.2214456664789442
 40
0.4440043666747647
 40
0.6465430895313302
 40
0.8407771756611627
 40
1.0
 40
1.0
 40
1.0
 40
1.0
 10
377.1656387216782
 20
949.1222747652971
 30
0.0
 10
377.1779481501498
 20
949.2712918245759
 30
0.0
 10
377.2026288769377
 20
949.5700749350376
 30
0.0
 10
377.419291746381
 20
949.9615063842225
 30
0.0
 10
377.7403662003222
 20
950.2342198825028
 30
0.0
 10
378.0942973735479
 20
950.3742266618895
 30
0.0
 10
378.3313927860723
 20
950.3884262314821
 30
0.0
 10
378.4381978876328
 20
950.3948227553808
 30
0.0
  0
SPLINE
  5
20A
330
1F
100
AcDbEntity
  8
0
  6
PHANTOM
 62
     8
370
     0
100
AcDbSpline
210
0.0
220
0.0
230
1.0
 70
     8
 71
     3
 72
    12
 73
     8
 74
     0
 42
0.000000001
 43
0.00000001
 40
0.0
 40
0.0
 40
0.0
 40
0.0
 40
0.2214522520744634
 40
0.4440119390580493
 40
0.6465531761929627
 40
0.8407859916268756
 40
1.0
 40
1.0
 40
1.0
 40
1.0
 10
378.4381978876328
 20
824.7290276973688
 30
0.0
 10
378.2891747842369
 20
824.7413306876317
 30
0.0
 10
377.9903833450742
 20
824.7659981927561
 30
0.0
 10
377.5989363374557
 20
824.9826627453696
 30
0.0
 10
377.3262397652597
 20
825.3037560056254
 30
0.0
 10
377.1862261374864
 20
825.6576804919054
 30
0.0
 10
377.1720324322703
 20
825.8947716450947
 30
0.0
 10
377.1656387216782
 20
826.0015719621622
 30
0.0
  0
SPLINE
  5
20B
330
1F
100
AcDbEntity
  8
0
  6
PHANTOM
 62
     8
370
     0
100
AcDbSpline
210
0.0
220
0.0
230
1.0
 70
     8
 71
     3
 72
    12
 73
     8
 74
     0
 42
0.000000001
 43
0.00000001
 40
0.0
 40
0.0
 40
0.0
 40
0.0
 40
0.2214542996569437
 40
0.4440276918826297
 40
0.6465509968305746
 40
0.8407890632655589
 40
1.0
 40
1.0
 40
1.0
 40
1.0
 10
1861.731492794249
 20
826.0015719621622
 30
0.0
 10
1861.719177518271
 20
825.8525498800732
 30
0.0
 10
1861.694484732555
 20
825.5537526507936
 30
0.0
 10
1861.477736371726
 20
825.1623840024577
 30
0.0
 10
1861.156737690568
 20
824.8896035510181
 30
0.0
 10
1860.802811424842
 20
824.7496207841
 30
0.0
 10
1860.565727824308
 20
824.7354230568917
 30
0.0
 10
1860.458933628294
 20
824.7290276973688
 30
0.0
  0
SPLINE
  5
20C
330
1F
100
AcDbEntity
  8
0
  6
PHANTOM
 62
     8
370
     0
100
AcDbSpline
210
0.0
220
0.0
230
1.0
 70
     8
 71
     3
 72
    12
 73
     8
 74
     0
 42
0.000000001
 43
0.00000001
 40
0.0
 40
0.0
 40
0.0
 40
0.0
 40
0.2214177425586722
 40
0.4439985343549591
 40
0.6465293789426633
 40
0.8407711023351091
 40
1.0
 40
1.0
 40
1.0
 40
1.0
 10
1860.458933628294
 20
950.3948227553808
 30
0.0
 10
1860.607923488313
 20
950.382509183569
 30
0.0
 10
1860.906685812947
 20
950.3578173599874
 30
0.0
 10
1861.298137311145
 20
950.1412156490846
 30
0.0
 10
1861.570763749194
 20
949.8200622061004
 30
0.0
 10
1861.71079833469
 20
949.4661709261674
 30
0.0
 10
1861.725065723688
 20
949.2290784672844
 30
0.0
 10
1861.731492794249
 20
949.1222747652971
 30
0.0
  0
SPLINE
  5
20D
330
1F
100
AcDbEntity
  8
0
  6
PHANTOM
 62
     8
370
     0
100
AcDbSpline
210
0.0
220
0.0
230
1.0
 70
     8
 71
     3
 72
    14
 73
    10
 74
     0
 42
0.000000001
 43
0.00000001
 40
0.0
 40
0.0
 40
0.0
 40
0.0
 40
0.1656976650224932
 40
0.3584499940804877
 40
0.5178872794341798
 40
0.5538801013063941
 40
0.749106783260581
 40
0.7715831208175764
 40
1.0
 40
1.0
 40
1.0
 40
1.0
 10
377.5898151762223
 20
826.0015719621622
 30
0.0
 10
377.5877253103965
 20
825.9249307235375
 30
0.0
 10
377.5832043511373
 20
825.759134473315
 30
0.0
 10
377.6575502372808
 20
825.5244205846154
 30
0.0
 10
377.7688441385865
 20
825.3780097331387
 30
0.0
 10
377.9065557444337
 20
825.2597157180767
 30
0.0
 10
378.0154564457472
 20
825.2053777788677
 30
0.0
 10
378.2145997226291
 20
825.1503317223991
 30
0.0
 10
378.3316414109894
 20
825.1518352857221
 30
0.0
 10
378.4381978876328
 20
825.1532041519129
 30
0.0
  0
SPLINE
  5
20E
330
1F
100
AcDbEntity
  8
0
  6
PHANTOM
 62
     8
370
     0
100
AcDbSpline
210
0.0
220
0.0
230
1.0
 70
     8
 71
     3
 72
    14
 73
    10
 74
     0
 42
0.000000001
 43
0.00000001
 40
0.0
 40
0.0
 40
0.0
 40
0.0
 40
0.1656975376411827
 40
0.3584496553580614
 40
0.5178944266125386
 40
0.5538852582790424
 40
0.7491156994182255
 40
0.7715974502576536
 40
1.0
 40
1.0
 40
1.0
 40
1.0
 10
378.4381978876328
 20
949.9706407129013
 30
0.0
 10
378.3615570937786
 20
949.9727369442736
 30
0.0
 10
378.1957618349324
 20
949.9772716731758
 30
0.0
 10
377.961036894059
 20
949.9029288406408
 30
0.0
 10
377.8146432650862
 20
949.7916133921552
 30
0.0
 10
377.6963334118242
 20
949.6539080108704
 30
0.0
 10
377.6420414411865
 20
949.544988251127
 30
0.0
 10
377.5869002114838
 20
949.3458735869046
 30
0.0
 10
377.5884260594997
 20
949.2288300378651
 30
0.0
 10
377.5898151762223
 20
949.1222747652971
 30
0.0
  0
SPLINE
  5
20F
330
1F
100
AcDbEntity
  8
0
  6
PHANTOM
 62
     8
370
     0
100
AcDbSpline
210
0.0
220
0.0
230
1.0
 70
     8
 71
     3
 72
    14
 73
    10
 74
     0
 42
0.000000001
 43
0.00000001
 40
0.0
 40
0.0
 40
0.0
 40
0.0
 40
0.1656384756504094
 40
0.3584571585437282
 40
0.5178885418158252
 40
0.5538684618040731
 40
0.7491202077967037
 40
0.7715887421182699
 40
1.0
 40
1.0
 40
1.0
 40
1.0
 10
1860.458933628294
 20
825.1532041519129
 30
0.0
 10
1860.53554433553
 20
825.1511137886348
 30
0.0
 10
1860.701337073733
 20
825.1465900469254
 30
0.0
 10
1860.936052924385
 20
825.2209009268632
 30
0.0
 10
1861.082495224522
 20
825.3322095789341
 30
0.0
 10
1861.200696937114
 20
825.4699875357658
 30
0.0
 10
1861.255248379628
 20
825.5787980830661
 30
0.0
 10
1861.309982886494
 20
825.7780277207645
 30
0.0
 10
1861.308540311871
 20
825.895039571539
 30
0.0
 10
1861.307226932738
 20
826.0015719621622
 30
0.0
  0
SPLINE
  5
210
330
1F
100
AcDbEntity
  8
0
  6
PHANTOM
 62
     8
370
     0
100
AcDbSpline
210
0.0
220
0.0
230
1.0
 70
     8
 71
     3
 72
    14
 73
    10
 74
     0
 42
0.000000001
 43
0.00000001
 40
0.0
 40
0.0
 40
0.0
 40
0.0
 40
0.1656998141059739
 40
0.3584750378229669
 40
0.517894318154734
 40
0.5538737649238352
 40
0.7491829642760937
 40
0.7716189142248021
 40
1.0
 40
1.0
 40
1.0
 40
1.0
 10
1861.307226932738
 20
949.1222747652971
 30
0.0
 10
1861.309362126648
 20
949.1989181355176
 30
0.0
 10
1861.313981405925
 20
949.3647284303989
 30
0.0
 10
1861.23945760304
 20
949.5993930182343
 30
0.0
 10
1861.128235549168
 20
949.7458134750738
 30
0.0
 10
1860.990569973849
 20
949.8641976308024
 30
0.0
 10
1860.881592842823
 20
949.9184119677175
 30
0.0
 10
1860.68249040467
 20
949.9735744836353
 30
0.0
 10
1860.565478577097
 20
949.9720389190203
 30
0.0
 10
1860.458933628294
 20
949.9706407129013
 30
0.0
  0
LWPOLYLINE
  5
211
330
1F
100
AcDbEntity
  8
0
  6
PHANTOM
 62
     8
370
     0
100
AcDbPolyline
 90
        6
 70
   128
 43
0.0
 10
384.3767278559
 20
831.9401317327
 10
382.9683893091
 20
830.3305679052
 10
381.6175990469
 20
828.7868374079
 10
380.3796701796
 20
827.3720615595
 10
379.3052368529
 20
826.1441164701
 10
378.4381978876
 20
825.1532041519
  0
LWPOLYLINE
  5
212
330
1F
100
AcDbEntity
  8
0
  6
PHANTOM
 62
     8
370
     0
100
AcDbPolyline
 90
        6
 70
   128
 43
0.0
 10
377.5898151762
 20
826.0015719622
 10
378.5807423956
 20
826.8686109274
 10
379.808687485
 20
827.9430740564
 10
381.223433531
 20
829.1809880226
 10
382.7671938307
 20
830.5317633837
 10
384.3767278559
 20
831.9401317327
  0
LWPOLYLINE
  5
213
330
1F
100
AcDbEntity
  8
0
  6
PHANTOM
 62
     8
370
     0
100
AcDbPolyline
 90
        6
 70
   128
 43
0.0
 10
384.3767278559
 20
943.1837205826
 10
382.7671938307
 20
944.5920870691
 10
381.223433531
 20
945.9428531169
 10
379.808687485
 20
947.180778259
 10
378.5807423956
 20
948.2552339374
 10
377.5898151762
 20
949.1222747653
  0
LWPOLYLINE
  5
214
330
1F
100
AcDbEntity
  8
0
  6
PHANTOM
 62
     8
370
     0
100
AcDbPolyline
 90
        6
 70
   128
 43
0.0
 10
378.4381978876
 20
949.9706407129
 10
379.3052368529
 20
948.9797358453
 10
380.3796701796
 20
947.7517870306
 10
381.6175990469
 20
946.3370149075
 10
382.9683893091
 20
944.7932825475
 10
384.3767278559
 20
943.1837205826
  0
LWPOLYLINE
  5
215
330
1F
100
AcDbEntity
  8
0
  6
PHANTOM
 62
     8
370
     0
100
AcDbPolyline
 90
        6
 70
   128
 43
0.0
 10
1854.5202844507
 20
943.1837205826
 10
1855.9287422068
 20
944.7932825475
 10
1857.2795026667
 20
946.3370149075
 10
1858.5173719294
 20
947.7517870306
 10
1859.5918052561
 20
948.9797358453
 10
1860.4589336283
 20
949.9706407129
  0
LWPOLYLINE
  5
216
330
1F
100
AcDbEntity
  8
0
  6
PHANTOM
 62
     8
370
     0
100
AcDbPolyline
 90
        6
 70
   128
 43
0.0
 10
1861.3072269327
 20
949.1222747653
 10
1860.316359318
 20
948.2552339374
 10
1859.0883844263
 20
947.180778259
 10
1857.6736085779
 20
945.9428531169
 10
1856.1298482783
 20
944.5920870691
 10
1854.5202844507
 20
943.1837205826
  0
LWPOLYLINE
  5
217
330
1F
100
AcDbEntity
  8
0
  6
PHANTOM
 62
     8
370
     0
100
AcDbPolyline
 90
        6
 70
   128
 43
0.0
 10
1854.5202844507
 20
831.9401317327
 10
1856.1298482783
 20
830.5317633837
 10
1857.6736085779
 20
829.1809880226
 10
1859.0883844263
 20
827.9430740564
 10
1860.316359318
 20
826.8686109274
 10
1861.3072269327
 20
826.0015719622
  0
LWPOLYLINE
  5
218
330
1F
100
AcDbEntity
  8
0
  6
PHANTOM
 62
     8
370
     0
100
AcDbPolyline
 90
        6
 70
   128
 43
0.0
 10
1860.4589336283
 20
825.1532041519
 10
1859.5918052561
 20
826.1441164701
 10
1858.5173719294
 20
827.3720615595
 10
1857.2795026667
 20
828.7868374079
 10
1855.9287422068
 20
830.3305679052
 10
1854.5202844507
 20
831.9401317327
  0
LINE
  5
219
330
1F
100
AcDbEntity
  8
0
  6
PHANTOM
 62
     8
370
     0
100
AcDbLine
 10
357.4485414393
 20
969.1119237156
 30
0.0
 11
326.4485531218
 21
969.1119237156
 31
0.0
  0
LINE
  5
21A
330
1F
100
AcDbEntity
  8
0
  6
PHANTOM
 62
     8
370
     0
100
AcDbLine
 10
326.4485531218
 20
969.1119237156
 30
0.0
 11
326.4485531218
 21
970.1119237631
 31
0.0
  0
LINE
  5
21B
330
1F
100
AcDbEntity
  8
0
  6
PHANTOM
 62
     8
370
     0
100
AcDbLine
 10
357.4485414393
 20
969.1119237156
 30
0.0
 11
357.4485414393
 21
970.1119237631
 31
0.0
  0
LINE
  5
21C
330
1F
100
AcDbEntity
  8
0
  6
PHANTOM
 62
     8
370
     0
100
AcDbLine
 10
294.4485180742
 20
806.1119192331
 30
0.0
 11
326.4485531218
 21
806.1119192331
 31
0.0
  0
LINE
  5
21D
330
1F
100
AcDbEntity
  8
0
  6
PHANTOM
 62
     8
370
     0
100
AcDbLine
 10
326.4485531218
 20
805.1119172066
 30
0.0
 11
326.4485531218
 21
806.1119192331
 31
0.0
  0
LINE
  5
21E
330
1F
100
AcDbEntity
  8
0
  6
PHANTOM
 62
     8
370
     0
100
AcDbLine
 10
326.4485531218
 20
969.1119237156
 30
0.0
 11
294.4485180742
 21
969.1119237156
 31
0.0
  0
LINE
  5
21F
330
1F
100
AcDbEntity
  8
0
  6
PHANTOM
 62
     8
370
     0
100
AcDbLine
 10
326.4485531218
 20
969.1119237156
 30
0.0
 11
326.4485531218
 21
806.1119192331
 31
0.0
  0
LINE
  5
220
330
1F
100
AcDbEntity
  8
0
  6
PHANTOM
 62
     8
370
     0
100
AcDbLine
 10
357.4485414393
 20
806.1119192331
 30
0.0
 11
357.4485414393
 21
969.1119237156
 31
0.0
  0
LINE
  5
221
330
1F
100
AcDbEntity
  8
0
  6
PHANTOM
 62
     8
370
     0
100
AcDbLine
 10
326.4485531218
 20
806.1119192331
 30
0.0
 11
357.4485414393
 21
806.1119192331
 31
0.0
  0
LINE
  5
222
330
1F
100
AcDbEntity
  8
0
  6
PHANTOM
 62
     8
370
     0
100
AcDbLine
 10
357.4485414393
 20
969.1119237156
 30
0.0
 11
358.4485285647
 21
969.1119237156
 31
0.0
  0
LINE
  5
223
330
1F
100
AcDbEntity
  8
0
  6
PHANTOM
 62
     8
370
     0
100
AcDbLine
 10
357.4485414393
 20
806.1119192331
 30
0.0
 11
357.4485414393
 21
805.1119172066
 31
0.0
  0
LINE
  5
224
330
1F
100
AcDbEntity
  8
0
  6
PHANTOM
 62
     8
370
     0
100
AcDbLine
 10
357.4485414393
 20
806.1119192331
 30
0.0
 11
358.4485285647
 21
806.1119192331
 31
0.0
  0
LINE
  5
225
330
1F
100
AcDbEntity
  8
0
  6
PHANTOM
 62
     8
370
     0
100
AcDbLine
 10
295.2085368998
 20
800.851928541
 30
0.0
 11
357.6885395415
 21
800.851928541
 31
0.0
  0
LINE
  5
226
330
1F
100
AcDbEntity
  8
0
  6
PHANTOM
 62
     8
370
     0
100
AcDbLine
 10
356.0408287413
 20
804.2169683664
 30
0.0
 11
296.8562476999
 21
804.2169683664
 31
0.0
  0
LINE
  5
227
330
1F
100
AcDbEntity
  8
0
  6
PHANTOM
 62
     8
370
     0
100
AcDbLine
 10
326.4485531218
 20
797.1474998682
 30
0.0
 11
356.0318582422
 21
797.1474998682
 31
0.0
  0
LINE
  5
228
330
1F
100
AcDbEntity
  8
0
  6
PHANTOM
 62
     8
370
     0
100
AcDbLine
 10
296.8651883967
 20
797.1474998682
 30
0.0
 11
326.4485531218
 21
797.1474998682
 31
0.0
  0
LINE
  5
229
330
1F
100
AcDbEntity
  8
0
  6
PHANTOM
 62
     8
370
     0
100
AcDbLine
 10
347.0385306246
 20
777.0378016918
 30
0.0
 11
305.8585160143
 21
777.0378016918
 31
0.0
  0
LINE
  5
22A
330
1F
100
AcDbEntity
  8
0
  6
PHANTOM
 62
     8
370
     0
100
AcDbLine
 10
300.6599777109
 20
759.3839638918
 30
0.0
 11
352.2370987303
 21
759.3839638918
 31
0.0
  0
LINE
  5
22B
330
1F
100
AcDbEntity
  8
0
  6
PHANTOM
 62
     8
370
     0
100
AcDbLine
 10
326.4485531218
 20
760.449843952
 30
0.0
 11
351.6752653486
 21
760.449843952
 31
0.0
  0
LINE
  5
22C
330
1F
100
AcDbEntity
  8
0
  6
PHANTOM
 62
     8
370
     0
100
AcDbLine
 10
301.2218110926
 20
760.449843952
 30
0.0
 11
326.4485531218
 21
760.449843952
 31
0.0
  0
LINE
  5
22D
330
1F
100
AcDbEntity
  8
0
  6
PHANTOM
 62
     8
370
     0
100
AcDbLine
 10
300.9485237963
 20
745.2349388092
 30
0.0
 11
351.9485526449
 21
745.2349388092
 31
0.0
  0
LINE
  5
22E
330
1F
100
AcDbEntity
  8
0
  6
PHANTOM
 62
     8
370
     0
100
AcDbLine
 10
347.7473788626
 20
749.7250163048
 30
0.0
 11
305.1496975786
 21
749.7250163048
 31
0.0
  0
LINE
  5
22F
330
1F
100
AcDbEntity
  8
0
  6
PHANTOM
 62
     8
370
     0
100
AcDbLine
 10
305.8585160143
 20
776.0019176691
 30
0.0
 11
347.0385306246
 21
776.0019176691
 31
0.0
  0
LINE
  5
230
330
1F
100
AcDbEntity
  8
0
  6
PHANTOM
 62
     8
370
     0
100
AcDbLine
 10
345.9735446341
 20
752.0919167488
 30
0.0
 11
306.9235318072
 21
752.0919167488
 31
0.0
  0
LINE
  5
231
330
1F
100
AcDbEntity
  8
0
  6
PHANTOM
 62
     8
370
     0
100
AcDbLine
 10
326.4485531218
 20
751.6208165377
 30
0.0
 11
345.9735446341
 21
751.6208165377
 31
0.0
  0
LINE
  5
232
330
1F
100
AcDbEntity
  8
0
  6
PHANTOM
 62
     8
370
     0
100
AcDbLine
 10
306.9235318072
 20
751.6208165377
 30
0.0
 11
326.4485531218
 21
751.6208165377
 31
0.0
  0
LINE
  5
233
330
1F
100
AcDbEntity
  8
0
  6
PHANTOM
 62
     8
370
     0
100
AcDbLine
 10
326.4485531218
 20
198.217468807
 30
0.0
 11
342.7140646345
 21
198.217468807
 31
0.0
  0
LINE
  5
234
330
1F
100
AcDbEntity
  8
0
  6
PHANTOM
 62
     8
370
     0
100
AcDbLine
 10
310.1830118067
 20
198.217468807
 30
0.0
 11
326.4485531218
 21
198.217468807
 31
0.0
  0
LINE
  5
235
330
1F
100
AcDbEntity
  8
0
  6
PHANTOM
 62
     8
370
     0
100
AcDbLine
 10
326.4485531218
 20
181.0698085516
 30
0.0
 11
308.4485166437
 21
181.0698085516
 31
0.0
  0
LINE
  5
236
330
1F
100
AcDbEntity
  8
0
  6
PHANTOM
 62
     8
370
     0
100
AcDbLine
 10
344.4485299952
 20
181.0698085516
 30
0.0
 11
326.4485531218
 21
181.0698085516
 31
0.0
  0
LINE
  5
237
330
1F
100
AcDbEntity
  8
0
  6
PHANTOM
 62
     8
370
     0
100
AcDbLine
 10
326.4485531218
 20
184.4464116781
 30
0.0
 11
341.8695860274
 21
184.4464116781
 31
0.0
  0
LINE
  5
238
330
1F
100
AcDbEntity
  8
0
  6
PHANTOM
 62
     8
370
     0
100
AcDbLine
 10
311.0274904139
 20
184.4464116781
 30
0.0
 11
326.4485531218
 21
184.4464116781
 31
0.0
  0
LINE
  5
239
330
1F
100
AcDbEntity
  8
0
  6
PHANTOM
 62
     8
370
     0
100
AcDbLine
 10
308.4485166437
 20
180.7349496572
 30
0.0
 11
344.4485299952
 21
180.7349496572
 31
0.0
  0
LINE
  5
23A
330
1F
100
AcDbEntity
  8
0
  6
PHANTOM
 62
     8
370
     0
100
AcDbLine
 10
326.4485531218
 20
196.3554197042
 30
0.0
 11
341.397725857
 21
196.3554197042
 31
0.0
  0
LINE
  5
23B
330
1F
100
AcDbEntity
  8
0
  6
PHANTOM
 62
     8
370
     0
100
AcDbLine
 10
311.4993207819
 20
196.3554197042
 30
0.0
 11
326.4485531218
 21
196.3554197042
 31
0.0
  0
LINE
  5
23C
330
1F
100
AcDbEntity
  8
0
  6
PHANTOM
 62
     8
370
     0
100
AcDbLine
 10
315.4485457308
 20
190.2349167555
 30
0.0
 11
337.4485307104
 21
190.2349167555
 31
0.0
  0
LINE
  5
23D
330
1F
100
AcDbEntity
  8
0
  6
PHANTOM
 62
     8
370
     0
100
AcDbLine
 10
337.4485307104
 20
190.7167607038
 30
0.0
 11
315.4485457308
 21
190.7167607038
 31
0.0
  0
LINE
  5
23E
330
1F
100
AcDbEntity
  8
0
  6
PHANTOM
 62
     8
370
     0
100
AcDbLine
 10
340.4236965544
 20
176.7611079901
 30
0.0
 11
312.4733798868
 21
176.7611079901
 31
0.0
  0
LINE
  5
23F
330
1F
100
AcDbEntity
  8
0
  6
PHANTOM
 62
     8
370
     0
100
AcDbLine
 10
326.4485531218
 20
114.1826086729
 30
0.0
 11
337.1440999872
 21
114.1826086729
 31
0.0
  0
LINE
  5
240
330
1F
100
AcDbEntity
  8
0
  6
PHANTOM
 62
     8
370
     0
100
AcDbLine
 10
315.7529466517
 20
114.1826086729
 30
0.0
 11
326.4485531218
 21
114.1826086729
 31
0.0
  0
LINE
  5
241
330
1F
100
AcDbEntity
  8
0
  6
PHANTOM
 62
     8
370
     0
100
AcDbLine
 10
1912.4484889872
 20
806.1119192331
 30
0.0
 11
1944.448553837
 21
806.1119192331
 31
0.0
  0
LINE
  5
242
330
1F
100
AcDbEntity
  8
0
  6
PHANTOM
 62
     8
370
     0
100
AcDbLine
 10
1912.4484889872
 20
969.1119237156
 30
0.0
 11
1912.4484889872
 21
806.1119192331
 31
0.0
  0
LINE
  5
243
330
1F
100
AcDbEntity
  8
0
  6
PHANTOM
 62
     8
370
     0
100
AcDbLine
 10
1944.448553837
 20
969.1119237156
 30
0.0
 11
1912.4484889872
 21
969.1119237156
 31
0.0
  0
LINE
  5
244
330
1F
100
AcDbEntity
  8
0
  6
PHANTOM
 62
     8
370
     0
100
AcDbLine
 10
1912.4484889872
 20
969.1119237156
 30
0.0
 11
1912.4484889872
 21
970.1119237631
 31
0.0
  0
LINE
  5
245
330
1F
100
AcDbEntity
  8
0
  6
PHANTOM
 62
     8
370
     0
100
AcDbLine
 10
1880.4485433466
 20
806.1119192331
 30
0.0
 11
1881.4485900767
 21
806.1119192331
 31
0.0
  0
LINE
  5
246
330
1F
100
AcDbEntity
  8
0
  6
PHANTOM
 62
     8
370
     0
100
AcDbLine
 10
1881.4485900767
 20
805.1119172066
 30
0.0
 11
1881.4485900767
 21
806.1119192331
 31
0.0
  0
LINE
  5
247
330
1F
100
AcDbEntity
  8
0
  6
PHANTOM
 62
     8
370
     0
100
AcDbLine
 10
1912.4484889872
 20
805.1119172066
 30
0.0
 11
1912.4484889872
 21
806.1119192331
 31
0.0
  0
LINE
  5
248
330
1F
100
AcDbEntity
  8
0
  6
PHANTOM
 62
     8
370
     0
100
AcDbLine
 10
1881.4485900767
 20
806.1119192331
 30
0.0
 11
1912.4484889872
 21
806.1119192331
 31
0.0
  0
LINE
  5
249
330
1F
100
AcDbEntity
  8
0
  6
PHANTOM
 62
     8
370
     0
100
AcDbLine
 10
1881.4485900767
 20
970.1119237631
 30
0.0
 11
1881.4485900767
 21
969.1119237156
 31
0.0
  0
LINE
  5
24A
330
1F
100
AcDbEntity
  8
0
  6
PHANTOM
 62
     8
370
     0
100
AcDbLine
 10
1880.4485433466
 20
969.1119237156
 30
0.0
 11
1881.4485900767
 21
969.1119237156
 31
0.0
  0
LINE
  5
24B
330
1F
100
AcDbEntity
  8
0
  6
PHANTOM
 62
     8
370
     0
100
AcDbLine
 10
1912.4484889872
 20
969.1119237156
 30
0.0
 11
1881.4485900767
 21
969.1119237156
 31
0.0
  0
LINE
  5
24C
330
1F
100
AcDbEntity
  8
0
  6
PHANTOM
 62
     8
370
     0
100
AcDbLine
 10
1881.4485900767
 20
969.1119237156
 30
0.0
 11
1881.4485900767
 21
806.1119192331
 31
0.0
  0
LINE
  5
24D
330
1F
100
AcDbEntity
  8
0
  6
PHANTOM
 62
     8
370
     0
100
AcDbLine
 10
1881.2085025675
 20
800.851928541
 30
0.0
 11
1943.6885946161
 21
800.851928541
 31
0.0
  0
LINE
  5
24E
330
1F
100
AcDbEntity
  8
0
  6
PHANTOM
 62
     8
370
     0
100
AcDbLine
 10
1882.8651540644
 20
797.1474998682
 30
0.0
 11
1942.03182391
 21
797.1474998682
 31
0.0
  0
LINE
  5
24F
330
1F
100
AcDbEntity
  8
0
  6
PHANTOM
 62
     8
370
     0
100
AcDbLine
 10
1942.040883816
 20
804.2169683664
 30
0.0
 11
1882.8562133677
 21
804.2169683664
 31
0.0
  0
LINE
  5
250
330
1F
100
AcDbEntity
  8
0
  6
PHANTOM
 62
     8
370
     0
100
AcDbLine
 10
1933.038555897
 20
777.0378016918
 30
0.0
 11
1891.8585412867
 21
777.0378016918
 31
0.0
  0
LINE
  5
251
330
1F
100
AcDbEntity
  8
0
  6
PHANTOM
 62
     8
370
     0
100
AcDbLine
 10
1886.6599433787
 20
759.3839638918
 30
0.0
 11
1938.2370345957
 21
759.3839638918
 31
0.0
  0
LINE
  5
252
330
1F
100
AcDbEntity
  8
0
  6
PHANTOM
 62
     8
370
     0
100
AcDbLine
 10
1887.2217767603
 20
760.449843952
 30
0.0
 11
1937.6753204233
 21
760.449843952
 31
0.0
  0
LINE
  5
253
330
1F
100
AcDbEntity
  8
0
  6
PHANTOM
 62
     8
370
     0
100
AcDbLine
 10
1886.9485490687
 20
745.2349388092
 30
0.0
 11
1937.948548115
 21
745.2349388092
 31
0.0
  0
LINE
  5
254
330
1F
100
AcDbEntity
  8
0
  6
PHANTOM
 62
     8
370
     0
100
AcDbLine
 10
1933.7473743326
 20
749.7250163048
 30
0.0
 11
1891.149722851
 21
749.7250163048
 31
0.0
  0
LINE
  5
255
330
1F
100
AcDbEntity
  8
0
  6
PHANTOM
 62
     8
370
     0
100
AcDbLine
 10
1891.8585412867
 20
776.0019176691
 30
0.0
 11
1933.038555897
 21
776.0019176691
 31
0.0
  0
LINE
  5
256
330
1F
100
AcDbEntity
  8
0
  6
PHANTOM
 62
     8
370
     0
100
AcDbLine
 10
1931.9735401041
 20
752.0919167488
 30
0.0
 11
1892.9235570795
 21
752.0919167488
 31
0.0
  0
LINE
  5
257
330
1F
100
AcDbEntity
  8
0
  6
PHANTOM
 62
     8
370
     0
100
AcDbLine
 10
1892.9235570795
 20
751.6208165377
 30
0.0
 11
1931.9735401041
 21
751.6208165377
 31
0.0
  0
LINE
  5
258
330
1F
100
AcDbEntity
  8
0
  6
PHANTOM
 62
     8
370
     0
100
AcDbLine
 10
1896.1829774744
 20
198.217468807
 30
0.0
 11
1928.7141197092
 21
198.217468807
 31
0.0
  0
LINE
  5
259
330
1F
100
AcDbEntity
  8
0
  6
PHANTOM
 62
     8
370
     0
100
AcDbLine
 10
1930.4484956629
 20
181.0698085516
 30
0.0
 11
1894.4484823115
 21
181.0698085516
 31
0.0
  0
LINE
  5
25A
330
1F
100
AcDbEntity
  8
0
  6
PHANTOM
 62
     8
370
     0
100
AcDbLine
 10
1897.0274560816
 20
184.4464116781
 30
0.0
 11
1927.869641102
 21
184.4464116781
 31
0.0
  0
LINE
  5
25B
330
1F
100
AcDbEntity
  8
0
  6
PHANTOM
 62
     8
370
     0
100
AcDbLine
 10
1894.4484823115
 20
180.7349496572
 30
0.0
 11
1930.4484956629
 21
180.7349496572
 31
0.0
  0
LINE
  5
25C
330
1F
100
AcDbEntity
  8
0
  6
PHANTOM
 62
     8
370
     0
100
AcDbLine
 10
1897.4992864496
 20
196.3554197042
 30
0.0
 11
1927.3976915247
 21
196.3554197042
 31
0.0
  0
LINE
  5
25D
330
1F
100
AcDbEntity
  8
0
  6
PHANTOM
 62
     8
370
     0
100
AcDbLine
 10
1901.4485710032
 20
190.2349167555
 30
0.0
 11
1923.4485261805
 21
190.2349167555
 31
0.0
  0
LINE
  5
25E
330
1F
100
AcDbEntity
  8
0
  6
PHANTOM
 62
     8
370
     0
100
AcDbLine
 10
1923.4485261805
 20
190.7167607038
 30
0.0
 11
1901.4485710032
 21
190.7167607038
 31
0.0
  0
LINE
  5
25F
330
1F
100
AcDbEntity
  8
0
  6
PHANTOM
 62
     8
370
     0
100
AcDbLine
 10
1926.4237516291
 20
176.7611079901
 30
0.0
 11
1898.4733455546
 21
176.7611079901
 31
0.0
  0
LINE
  5
260
330
1F
100
AcDbEntity
  8
0
  6
PHANTOM
 62
     8
370
     0
100
AcDbLine
 10
1901.7530315287
 20
114.1826086729
 30
0.0
 11
1923.144065655
 21
114.1826086729
 31
0.0
  0
LWPOLYLINE
  5
261
330
1F
100
AcDbEntity
  8
0
  6
Continuous
 62
     7
370
    40
100
AcDbPolyline
 90
        3
 70
   128
 43
0.0
 10
850.103055007
 20
1295.4686603681
 10
850.0663236446
 20
1295.6443152562
 10
849.959875337
 20
1296.1534283296
  0
LWPOLYLINE
  5
262
330
1F
100
AcDbEntity
  8
0
  6
Continuous
 62
     7
370
    40
100
AcDbPolyline
 90
        3
 70
   128
 43
0.0
 10
723.7935670383
 20
1295.468749775
 10
723.8303058512
 20
1295.6444344655
 10
723.9367522962
 20
1296.1535475389
  0
SPLINE
  5
263
330
1F
100
AcDbEntity
  8
0
  6
Continuous
 62
     7
370
    40
100
AcDbSpline
210
0.0
220
0.0
230
1.0
 70
     8
 71
     3
 72
    26
 73
    22
 74
     0
 42
0.000000001
 43
0.00000001
 40
0.0
 40
0.0
 40
0.0
 40
0.0
 40
0.0001128358214206
 40
0.0543769402682572
 40
0.1086403371892523
 40
0.1628033167956
 40
0.216966352768052
 40
0.270927118138031
 40
0.3248879256173828
 40
0.3787039157085664
 40
0.4325202495300938
 40
0.5000018259734593
 40
0.5537316107143045
 40
0.6074614184715686
 40
0.6611900991055061
 40
0.7149185719146325
 40
0.7686781702809063
 40
0.8224385985297817
 40
0.8762879681104517
 40
0.930137679984844
 40
1.0
 40
1.0
 40
1.0
 40
1.0
 10
762.9747845895027
 20
1444.001021160221
 30
0.0
 10
762.9748018053298
 20
1444.003842444033
 30
0.0
 10
762.9830983195708
 20
1445.363453065836
 30
0.0
 10
763.2347252405265
 20
1448.083604010346
 30
0.0
 10
764.2768274696639
 20
1452.036385089829
 30
0.0
 10
765.9818312404956
 20
1455.750482823481
 30
0.0
 10
768.2721032143138
 20
1459.1261176878
 30
0.0
 10
771.1053261702914
 20
1462.054025183246
 30
0.0
 10
774.3753342545615
 20
1464.469666812334
 30
0.0
 10
778.0088094082539
 20
1466.286647287755
 30
0.0
 10
782.2151132019754
 20
1467.578111717078
 30
0.0
 10
786.6054801161731
 20
1468.045277161882
 30
0.0
 10
790.9850423413872
 20
1467.668873805308
 30
0.0
 10
794.9099657102861
 20
1466.660927082612
 30
0.0
 10
798.6035834974865
 20
1464.996036674681
 30
0.0
 10
801.9744567320104
 20
1462.746409418391
 30
0.0
 10
804.9099592345715
 20
1459.952476666518
 30
0.0
 10
807.3525653044134
 20
1456.712288688607
 30
0.0
 10
809.1923103619476
 20
1453.100633744513
 30
0.0
 10
810.5948307399847
 20
1448.850776590742
 30
0.0
 10
810.8041101232959
 20
1445.751255191358
 30
0.0
 10
810.9222938037848
 20
1444.000901950932
 30
0.0
  0
SPLINE
  5
264
330
1F
100
AcDbEntity
  8
0
  6
Continuous
 62
     7
370
    40
100
AcDbSpline
210
0.0
220
0.0
230
1.0
 70
     8
 71
     3
 72
    26
 73
    22
 74
     0
 42
0.000000001
 43
0.00000001
 40
0.0
 40
0.0
 40
0.0
 40
0.0
 40
0.0001144228237069
 40
0.0543783256357605
 40
0.108641511820312
 40
0.1628049982806701
 40
0.2169671343269703
 40
0.2709276714570465
 40
0.324888264003154
 40
0.378704417609379
 40
0.4325202782419135
 40
0.5000015876893301
 40
0.5537312042211188
 40
0.6074608430720765
 40
0.6611890052849592
 40
0.7149177463250216
 40
0.7686772056439322
 40
0.8224368379091491
 40
0.8762860481567603
 40
0.9301363379859627
 40
0.9999999999999999
 40
0.9999999999999999
 40
0.9999999999999999
 40
0.9999999999999999
 10
810.9222938037848
 20
1444.000901950932
 30
0.0
 10
810.922276593026
 20
1443.998040930713
 30
0.0
 10
810.9140973486024
 20
1442.638369109327
 30
0.0
 10
810.66231068412
 20
1439.918208495106
 30
0.0
 10
809.6202585828681
 20
1435.965404896836
 30
0.0
 10
807.9152926519586
 20
1432.251282227589
 30
0.0
 10
805.6249735079815
 20
1428.875682428199
 30
0.0
 10
802.7917818889206
 20
1425.947770406826
 30
0.0
 10
799.5217512995027
 20
1423.532154816206
 30
0.0
 10
795.8883245918809
 20
1421.715066596075
 30
0.0
 10
791.6819777676661
 20
1420.423721717735
 30
0.0
 10
787.2916320763163
 20
1419.956521714812
 30
0.0
 10
782.9120625446103
 20
1420.332926155338
 30
0.0
 10
778.9871596481663
 20
1421.340895428107
 30
0.0
 10
775.2934879924604
 20
1423.005684570718
 30
0.0
 10
771.9226658209521
 20
1425.255406457206
 30
0.0
 10
768.98715717011
 20
1428.049317062259
 30
0.0
 10
766.5445142239471
 20
1431.289463638416
 30
0.0
 10
764.704768366697
 20
1434.901126880702
 30
0.0
 10
763.3022506476303
 20
1439.151048392982
 30
0.0
 10
763.092969629344
 20
1442.250628377523
 30
0.0
 10
762.9747845895027
 20
1444.001021160221
 30
0.0
  0
CIRCLE
  5
265
330
1F
100
AcDbEntity
  8
0
  6
Continuous
 62
     7
370
    40
100
AcDbCircle
 10
786.94853924
 20
1444.0008883532
 30
0.0
 40
16.70327049847151
  0
LWPOLYLINE
  5
266
330
1F
100
AcDbEntity
  8
0
  6
Continuous
 62
     7
370
    40
100
AcDbPolyline
 90
        3
 70
   128
 43
0.0
 10
1515.1030652888
 20
1295.4686603681
 10
1515.0663488276
 20
1295.6443152562
 10
1514.959894932
 20
1296.1534283296
  0
LWPOLYLINE
  5
267
330
1F
100
AcDbEntity
  8
0
  6
Continuous
 62
     7
370
    40
100
AcDbPolyline
 90
        3
 70
   128
 43
0.0
 10
1388.793551243
 20
1295.468749775
 10
1388.8303273089
 20
1295.6444344655
 10
1388.9367812044
 20
1296.1535475389
  0
SPLINE
  5
268
330
1F
100
AcDbEntity
  8
0
  6
Continuous
 62
     7
370
    40
100
AcDbSpline
210
0.0
220
0.0
230
1.0
 70
     8
 71
     3
 72
    26
 73
    22
 74
     0
 42
0.000000001
 43
0.00000001
 40
0.0
 40
0.0
 40
0.0
 40
0.0
 40
0.0001128364627254
 40
0.0543769569165117
 40
0.1086402837131174
 40
0.162803112150864
 40
0.21696628112207
 40
0.2709269020432198
 40
0.3248876630109532
 40
0.3787039127808555
 40
0.4325200976847683
 40
0.5000014191501153
 40
0.5537318650195993
 40
0.607461209665809
 40
0.6611900648700881
 40
0.7149187580410915
 40
0.7686783318785919
 40
0.8224386939795376
 40
0.8762878641650542
 40
0.9301376785404315
 40
1.0
 40
1.0
 40
1.0
 40
1.0
 10
1427.974783695433
 20
1444.001021160221
 30
0.0
 10
1427.974803397737
 20
1444.003842444015
 30
0.0
 10
1427.984298124087
 20
1445.3634457463
 30
0.0
 10
1428.234209857317
 20
1448.083604244047
 30
0.0
 10
1429.276981934578
 20
1452.036379450468
 30
0.0
 10
1430.98176476086
 20
1455.750496131411
 30
0.0
 10
1433.272117276933
 20
1459.126105894782
 30
0.0
 10
1436.105305858315
 20
1462.05402901338
 30
0.0
 10
1439.375320967919
 20
1464.469674134753
 30
0.0
 10
1443.008804264253
 20
1466.286639130786
 30
0.0
 10
1447.215101645853
 20
1467.578113965662
 30
0.0
 10
1451.605475656308
 20
1468.045274088505
 30
0.0
 10
1455.985038949754
 20
1467.668883545869
 30
0.0
 10
1459.909967604622
 20
1466.660917309398
 30
0.0
 10
1463.603586056453
 20
1464.99603557479
 30
0.0
 10
1466.974478107036
 20
1462.746416532435
 30
0.0
 10
1469.909977775417
 20
1459.952476208461
 30
0.0
 10
1472.352587183446
 20
1456.71229577421
 30
0.0
 10
1474.192278698283
 20
1453.100619693891
 30
0.0
 10
1475.594852494622
 20
1448.850783886378
 30
0.0
 10
1475.804128178833
 20
1445.751256907627
 30
0.0
 10
1475.922309673521
 20
1444.000901950932
 30
0.0
  0
SPLINE
  5
269
330
1F
100
AcDbEntity
  8
0
  6
Continuous
 62
     7
370
    40
100
AcDbSpline
210
0.0
220
0.0
230
1.0
 70
     8
 71
     3
 72
    26
 73
    22
 74
     0
 42
0.000000001
 43
0.00000001
 40
0.0
 40
0.0
 40
0.0
 40
0.0
 40
0.0001144234675811
 40
0.0543783546861396
 40
0.1086414922502852
 40
0.162804853809886
 40
0.2169671773185438
 40
0.2709276100628595
 40
0.3248881816651251
 40
0.3787046005214093
 40
0.4325203652706265
 40
0.5000014514084103
 40
0.5537309186118601
 40
0.6074608448702001
 40
0.6611891872188929
 40
0.7149174735284777
 40
0.7686774358565521
 40
0.8224369777323604
 40
0.876285960129705
 40
0.930136339235685
 40
1.0
 40
1.0
 40
1.0
 40
1.0
 10
1475.922309673521
 20
1444.000901950932
 30
0.0
 10
1475.922289976249
 20
1443.99804093073
 30
0.0
 10
1475.912929088503
 20
1442.638376042194
 30
0.0
 10
1475.662826673348
 20
1439.918207991935
 30
0.0
 10
1474.620110713886
 20
1435.965410483208
 30
0.0
 10
1472.915359880469
 20
1432.251267743509
 30
0.0
 10
1470.624953620265
 20
1428.87569485614
 30
0.0
 10
1467.791793146215
 20
1425.947766820506
 30
0.0
 10
1464.521753767917
 20
1423.532148113101
 30
0.0
 10
1460.888317668899
 20
1421.715073544745
 30
0.0
 10
1456.681975034549
 20
1420.423721258781
 30
0.0
 10
1452.291640426866
 20
1419.956521259989
 30
0.0
 10
1447.912072987358
 20
1420.332928914666
 30
0.0
 10
1443.987163547896
 20
1421.340896914624
 30
0.0
 10
1440.293478246426
 20
1423.005665814464
 30
0.0
 10
1436.922685952767
 20
1425.255438304582
 30
0.0
 10
1433.987130440242
 20
1428.049294139038
 30
0.0
 10
1431.544493073653
 20
1431.289459628196
 30
0.0
 10
1429.704803181239
 20
1434.901140676164
 30
0.0
 10
1428.302237783065
 20
1439.151041855212
 30
0.0
 10
1428.092964359937
 20
1442.250626833972
 30
0.0
 10
1427.974783695433
 20
1444.001021160221
 30
0.0
  0
CIRCLE
  5
26A
330
1F
100
AcDbEntity
  8
0
  6
Continuous
 62
     7
370
    40
100
AcDbCircle
 10
1451.94853924
 20
1444.0008883532
 30
0.0
 40
16.70327049847151
  0
LINE
  5
26B
330
1F
100
AcDbEntity
  8
0
  6
Continuous
 62
     7
370
    40
100
AcDbLine
 10
1941.4797656901
 20
1774.8583576814
 30
0.0
 11
297.4172466166
 21
1774.8583576814
 31
0.0
  0
CIRCLE
  5
26C
330
1F
100
AcDbEntity
  8
0
  6
Continuous
 62
     7
370
    40
100
AcDbCircle
 10
786.94853924
 20
1689.8583453866
 30
0.0
 40
17.50000000000023
  0
CIRCLE
  5
26D
330
1F
100
AcDbEntity
  8
0
  6
Continuous
 62
     7
370
    40
100
AcDbCircle
 10
1351.94853924
 20
1689.8583453866
 30
0.0
 40
17.5
  0
CIRCLE
  5
26E
330
1F
100
AcDbEntity
  8
0
  6
Continuous
 62
     7
370
    40
100
AcDbCircle
 10
1451.94853924
 20
1689.8583453866
 30
0.0
 40
17.5
  0
CIRCLE
  5
26F
330
1F
100
AcDbEntity
  8
0
  6
Continuous
 62
     7
370
    40
100
AcDbCircle
 10
686.94853924
 20
1689.8583453866
 30
0.0
 40
17.50000000000023
  0
CIRCLE
  5
270
330
1F
100
AcDbEntity
  8
0
  6
Continuous
 62
     7
370
    40
100
AcDbCircle
 10
886.94853924
 20
1689.8583453866
 30
0.0
 40
17.50000000000023
  0
CIRCLE
  5
271
330
1F
100
AcDbEntity
  8
0
  6
Continuous
 62
     7
370
    40
100
AcDbCircle
 10
1551.94853924
 20
1689.8583453866
 30
0.0
 40
17.5
  0
LINE
  5
272
330
1F
100
AcDbEntity
  8
0
  6
Continuous
 62
     7
370
    40
100
AcDbLine
 10
1941.4797656901
 20
1774.8583576814
 30
0.0
 11
1944.4739454157
 21
1774.8583576814
 31
0.0
  0
LINE
  5
273
330
1F
100
AcDbEntity
  8
0
  6
Continuous
 62
     7
370
    40
100
AcDbLine
 10
294.4231264956
 20
1774.8583576814
 30
0.0
 11
297.4172466166
 21
1774.8583576814
 31
0.0
  0
LINE
  5
274
330
1F
100
AcDbEntity
  8
0
  6
Continuous
 62
     7
370
    40
100
AcDbLine
 10
591.9485323794
 20
1744.858326687
 30
0.0
 11
344.4485299952
 21
1744.858326687
 31
0.0
  0
LINE
  5
275
330
1F
100
AcDbEntity
  8
0
  6
Continuous
 62
     7
370
    40
100
AcDbLine
 10
1256.948553837
 20
1744.858326687
 30
0.0
 11
981.9485329754
 21
1744.858326687
 31
0.0
  0
ARC
  5
276
330
1F
100
AcDbEntity
  8
0
  6
Continuous
 62
     7
370
    40
100
AcDbCircle
 10
1646.94853924
 20
1724.8583453866
 30
0.0
 40
20.0
100
AcDbArc
 50
90.0
 51
180.0
  0
ARC
  5
277
330
1F
100
AcDbEntity
  8
0
  6
Continuous
 62
     7
370
    40
100
AcDbCircle
 10
1256.94853924
 20
1724.8583453866
 30
0.0
 40
20.0
100
AcDbArc
 50
0.0
 51
90.0
  0
ARC
  5
278
330
1F
100
AcDbEntity
  8
0
  6
Continuous
 62
     7
370
    40
100
AcDbCircle
 10
1894.44853924
 20
1724.8583453866
 30
0.0
 40
20.0
100
AcDbArc
 50
0.0
 51
90.0
  0
ARC
  5
279
330
1F
100
AcDbEntity
  8
0
  6
Continuous
 62
     7
370
    40
100
AcDbCircle
 10
591.94853924
 20
1724.8583453866
 30
0.0
 40
20.0
100
AcDbArc
 50
0.0
 51
90.0
  0
ARC
  5
27A
330
1F
100
AcDbEntity
  8
0
  6
Continuous
 62
     7
370
    40
100
AcDbCircle
 10
344.44853924
 20
1724.8583453866
 30
0.0
 40
20.0
100
AcDbArc
 50
90.0
 51
180.0
  0
ARC
  5
27B
330
1F
100
AcDbEntity
  8
0
  6
Continuous
 62
     7
370
    40
100
AcDbCircle
 10
981.94853924
 20
1724.8583453866
 30
0.0
 40
20.0
100
AcDbArc
 50
90.0
 51
180.0
  0
LINE
  5
27C
330
1F
100
AcDbEntity
  8
0
  6
Continuous
 62
     7
370
    40
100
AcDbLine
 10
1894.4484823115
 20
1744.858326687
 30
0.0
 11
1646.9485395319
 21
1744.858326687
 31
0.0
  0
LINE
  5
27D
330
1F
100
AcDbEntity
  8
0
  6
Continuous
 62
     7
370
    40
100
AcDbLine
 10
324.4485490687
 20
1724.8583457604
 30
0.0
 11
324.4485490687
 21
1259.8583421842
 31
0.0
  0
LINE
  5
27E
330
1F
100
AcDbEntity
  8
0
  6
Continuous
 62
     7
370
    40
100
AcDbLine
 10
611.9485431082
 20
1669.8583386079
 30
0.0
 11
611.9485431082
 21
1724.8583457604
 31
0.0
  0
LINE
  5
27F
330
1F
100
AcDbEntity
  8
0
  6
Continuous
 62
     7
370
    40
100
AcDbLine
 10
961.9485371477
 20
1724.8583457604
 30
0.0
 11
961.9485371477
 21
1669.8583386079
 31
0.0
  0
LINE
  5
280
330
1F
100
AcDbEntity
  8
0
  6
Continuous
 62
     7
370
    40
100
AcDbLine
 10
1626.9485586054
 20
1724.8583457604
 30
0.0
 11
1626.9485586054
 21
1669.8583386079
 31
0.0
  0
LINE
  5
281
330
1F
100
AcDbEntity
  8
0
  6
Continuous
 62
     7
370
    40
100
AcDbLine
 10
1914.4485824473
 20
1259.8583421842
 30
0.0
 11
1914.4485824473
 21
1724.8583457604
 31
0.0
  0
LINE
  5
282
330
1F
100
AcDbEntity
  8
0
  6
Continuous
 62
     7
370
    40
100
AcDbLine
 10
1276.9485347635
 20
1669.8583386079
 30
0.0
 11
1276.9485347635
 21
1724.8583457604
 31
0.0
  0
ARC
  5
283
330
1F
100
AcDbEntity
  8
0
  6
Continuous
 62
     7
370
    40
100
AcDbCircle
 10
1296.94853924
 20
1669.8583453866
 30
0.0
 40
20.0
100
AcDbArc
 50
180.0
 51
270.0
  0
ARC
  5
284
330
1F
100
AcDbEntity
  8
0
  6
Continuous
 62
     7
370
    40
100
AcDbCircle
 10
631.94853924
 20
1669.8583453866
 30
0.0
 40
20.00000000000011
100
AcDbArc
 50
180.0
 51
270.0
  0
ARC
  5
285
330
1F
100
AcDbEntity
  8
0
  6
Continuous
 62
     7
370
    40
100
AcDbCircle
 10
1606.94853924
 20
1669.8583453866
 30
0.0
 40
20.0
100
AcDbArc
 50
270.0
 51
0.0
  0
ARC
  5
286
330
1F
100
AcDbEntity
  8
0
  6
Continuous
 62
     7
370
    40
100
AcDbCircle
 10
941.94853924
 20
1669.8583453866
 30
0.0
 40
20.0
100
AcDbArc
 50
270.0
 51
0.0
  0
LINE
  5
287
330
1F
100
AcDbEntity
  8
0
  6
Continuous
 62
     7
370
    40
100
AcDbLine
 10
941.9485413201
 20
1649.8583576814
 30
0.0
 11
631.9485389359
 21
1649.8583576814
 31
0.0
  0
LINE
  5
288
330
1F
100
AcDbEntity
  8
0
  6
Continuous
 62
     7
370
    40
100
AcDbLine
 10
1606.9485180742
 20
1649.8583576814
 30
0.0
 11
1296.9485454924
 21
1649.8583576814
 31
0.0
  0
ARC
  5
289
330
1F
100
AcDbEntity
  8
0
  6
Continuous
 62
     7
370
    40
100
AcDbCircle
 10
344.44853924
 20
1259.8583453866
 30
0.0
 40
20.0
100
AcDbArc
 50
180.0
 51
270.0
  0
ARC
  5
28A
330
1F
100
AcDbEntity
  8
0
  6
Continuous
 62
     7
370
    40
100
AcDbCircle
 10
1894.44853924
 20
1259.8583453866
 30
0.0
 40
20.0
100
AcDbArc
 50
270.0
 51
0.0
  0
LINE
  5
28B
330
1F
100
AcDbEntity
  8
0
  6
Continuous
 62
     7
370
    40
100
AcDbLine
 10
344.4485299952
 20
1239.8583314553
 30
0.0
 11
1894.4484823115
 21
1239.8583314553
 31
0.0
  0
LINE
  5
28C
330
1F
100
AcDbEntity
  8
0
  6
Continuous
 62
     7
370
    40
100
AcDbLine
 10
1944.4739454157
 20
1774.8583576814
 30
0.0
 11
1957.4485652811
 21
1774.8583576814
 31
0.0
  0
LINE
  5
28D
330
1F
100
AcDbEntity
  8
0
  6
Continuous
 62
     7
370
    40
100
AcDbLine
 10
281.4485662348
 20
1774.8583576814
 30
0.0
 11
294.4231264956
 21
1774.8583576814
 31
0.0
  0
ARC
  5
28E
330
1F
100
AcDbEntity
  8
0
  6
Continuous
 62
     7
370
    40
100
AcDbCircle
 10
786.94853924
 20
1328.8583453866
 30
0.0
 40
274.9999999999999
100
AcDbArc
 50
51.4539933098
 51
128.5460066902
  0
ARC
  5
28F
330
1F
100
AcDbEntity
  8
0
  6
Continuous
 62
     7
370
    40
100
AcDbCircle
 10
1451.94853924
 20
1328.8583453866
 30
0.0
 40
275.0000000000005
100
AcDbArc
 50
51.4539933098
 51
128.5460066902
  0
ARC
  5
290
330
1F
100
AcDbEntity
  8
0
  6
Continuous
 62
     7
370
    40
100
AcDbCircle
 10
879.3712812277
 20
1444.8583453866
 30
0.0
 40
126.6828963452581
100
AcDbArc
 50
308.5460066902
 51
51.4539933098
  0
ARC
  5
291
330
1F
100
AcDbEntity
  8
0
  6
Continuous
 62
     7
370
    40
100
AcDbCircle
 10
1359.5257972523
 20
1444.8583453866
 30
0.0
 40
126.682896345258
100
AcDbArc
 50
128.5460066902
 51
231.4539933098
  0
ARC
  5
292
330
1F
100
AcDbEntity
  8
0
  6
Continuous
 62
     7
370
    40
100
AcDbCircle
 10
694.5257972523
 20
1444.8583453866
 30
0.0
 40
126.6828963452581
100
AcDbArc
 50
128.5460066902
 51
231.4539933098
  0
ARC
  5
293
330
1F
100
AcDbEntity
  8
0
  6
Continuous
 62
     7
370
    40
100
AcDbCircle
 10
1544.3712812277
 20
1444.8583453866
 30
0.0
 40
126.6828963452579
100
AcDbArc
 50
308.5460066902
 51
51.4539933098
  0
ARC
  5
294
330
1F
100
AcDbEntity
  8
0
  6
Continuous
 62
     7
370
    40
100
AcDbCircle
 10
786.94853924
 20
1560.8583453866
 30
0.0
 40
275.0
100
AcDbArc
 50
231.4539933098
 51
308.5460066902
  0
ARC
  5
295
330
1F
100
AcDbEntity
  8
0
  6
Continuous
 62
     7
370
    40
100
AcDbCircle
 10
1451.94853924
 20
1560.8583453866
 30
0.0
 40
275.0000000000002
100
AcDbArc
 50
231.4539933098
 51
308.5460066902
  0
LINE
  5
296
330
1F
100
AcDbEntity
  8
0
  6
Continuous
 62
     7
370
    40
100
AcDbLine
 10
1969.4485299952
 20
1774.8583576814
 30
0.0
 11
1969.4485299952
 21
1224.8583457604
 31
0.0
  0
LINE
  5
297
330
1F
100
AcDbEntity
  8
0
  6
Continuous
 62
     7
370
    40
100
AcDbLine
 10
1957.4485652811
 20
1774.8583576814
 30
0.0
 11
1969.4485299952
 21
1774.8583576814
 31
0.0
  0
LINE
  5
298
330
1F
100
AcDbEntity
  8
0
  6
Continuous
 62
     7
370
    40
100
AcDbLine
 10
269.4485419161
 20
1224.8583457604
 30
0.0
 11
269.4485419161
 21
1774.8583576814
 31
0.0
  0
LINE
  5
299
330
1F
100
AcDbEntity
  8
0
  6
Continuous
 62
     7
370
    40
100
AcDbLine
 10
269.4485419161
 20
1774.8583576814
 30
0.0
 11
281.4485662348
 21
1774.8583576814
 31
0.0
  0
ARC
  5
29A
330
1F
100
AcDbEntity
  8
0
  6
Continuous
 62
     7
370
    40
100
AcDbCircle
 10
309.44853924
 20
1224.8583453866
 30
0.0
 40
40.00000000000006
100
AcDbArc
 50
180.0
 51
270.0
  0
ARC
  5
29B
330
1F
100
AcDbEntity
  8
0
  6
Continuous
 62
     7
370
    40
100
AcDbCircle
 10
1929.44853924
 20
1224.8583453866
 30
0.0
 40
40.0
100
AcDbArc
 50
270.0
 51
0.0
  0
LINE
  5
29C
330
1F
100
AcDbEntity
  8
0
  6
Continuous
 62
     7
370
    40
100
AcDbLine
 10
1929.4485681421
 20
1184.8583541051
 30
0.0
 11
309.4485633738
 21
1184.8583541051
 31
0.0
  0
SPLINE
  5
29D
330
1F
100
AcDbEntity
  8
0
  6
PHANTOM
 62
     8
370
     0
100
AcDbSpline
210
0.0
220
0.0
230
1.0
 70
     8
 71
     3
 72
    19
 73
    15
 74
     0
 42
0.000000001
 43
0.00000001
 40
0.0
 40
0.0
 40
0.0
 40
0.0
 40
0.0296978528462286
 40
0.1247261390844164
 40
0.2198037069041219
 40
0.3147433763643767
 40
0.4093315982847888
 40
0.5032274880082361
 40
0.5974234580109431
 40
0.6917543926622033
 40
0.7860641656196894
 40
0.8802113206236285
 40
0.9740745080648653
 40
1.0
 40
1.0
 40
1.0
 40
1.0
 10
696.1317592031693
 20
1588.336887134647
 30
0.0
 10
697.8507752686007
 20
1588.907306763655
 30
0.0
 10
705.070362421097
 20
1591.302976186372
 30
0.0
 10
718.1096667977363
 20
1594.486992020494
 30
0.0
 10
735.1555317353256
 20
1597.90086150042
 30
0.0
 10
752.3606863707133
 20
1600.264469339651
 30
0.0
 10
769.5928257733078
 20
1601.685252970755
 30
0.0
 10
786.832540355668
 20
1602.155409124686
 30
0.0
 10
804.0568345604431
 20
1601.695714451556
 30
0.0
 10
821.2543806300757
 20
1600.292344992018
 30
0.0
 10
838.3520922370393
 20
1597.963186864328
 30
0.0
 10
855.240568898562
 20
1594.609220312047
 30
0.0
 10
867.9366650342579
 20
1591.533821362594
 30
0.0
 10
874.8830960370979
 20
1589.272106576777
 30
0.0
 10
876.3864905304646
 20
1588.782610668278
 30
0.0
  0
LWPOLYLINE
  5
29E
330
1F
100
AcDbEntity
  8
0
  6
PHANTOM
 62
     8
370
     0
100
AcDbPolyline
 90
       32
 70
   128
 43
0.0
 10
849.959875337
 20
1296.1534283296
 10
849.9562171019
 20
1296.1709222928
 10
849.7729961492
 20
1297.047199978
 10
849.5171022333
 20
1298.2710621491
 10
849.1891481645
 20
1299.8395583764
 10
848.7899162538
 20
1301.7489633695
 10
848.3203639008
 20
1303.9946577683
 10
847.7816142804
 20
1306.5713367597
 10
847.1749544806
 20
1309.472771658
 10
846.5018392272
 20
1312.6920483247
 10
845.7638778455
 20
1316.2214777604
 10
844.9628361232
 20
1320.0525961057
 10
844.1006325848
 20
1324.1762242452
 10
843.1793273158
 20
1328.5825274125
 10
842.2011294133
 20
1333.2608959809
 10
841.1683746345
 20
1338.2002136842
 10
840.0835384346
 20
1343.3886191979
 10
838.9492154784
 20
1348.8137147561
 10
837.7681196398
 20
1354.4625065461
 10
836.543077483
 20
1360.3214643136
 10
835.2770208112
 20
1366.376580967
 10
833.972979217
 20
1372.6133725778
 10
832.6340735621
 20
1379.0169379846
 10
831.2635075963
 20
1385.5718991891
 10
829.8645605064
 20
1392.2625801698
 10
828.4405808627
 20
1399.0730068818
 10
826.9949759088
 20
1405.9868476525
 10
825.5312045767
 20
1412.9875323907
 10
824.0527705021
 20
1420.0584314004
 10
822.5632108479
 20
1427.1824977532
 10
821.0660904261
 20
1434.3426845208
 10
819.5649919763
 20
1441.5219447747
  0
LWPOLYLINE
  5
29F
330
1F
100
AcDbEntity
  8
0
  6
PHANTOM
 62
     8
370
     0
100
AcDbPolyline
 90
       33
 70
   128
 43
0.0
 10
819.5661805767
 20
1446.4854023591
 10
821.0671992238
 20
1453.6644837991
 10
822.56423734
 20
1460.8244917527
 10
824.0537125348
 20
1467.9483792916
 10
825.5320609278
 20
1475.0190398828
 10
826.9957447156
 20
1482.019545807
 10
828.4412616595
 20
1488.9331481591
 10
829.8651528276
 20
1495.7433364526
 10
831.2640105105
 20
1502.4337790147
 10
832.6344880007
 20
1508.9885018006
 10
833.9733051799
 20
1515.3918287889
 10
835.2772601611
 20
1521.628381981
 10
836.5432302199
 20
1527.6832602159
 10
837.7681885577
 20
1533.5419795648
 10
838.9492024399
 20
1539.1905329362
 10
840.0834453023
 20
1544.6153900758
 10
841.1682051338
 20
1549.803557171
 10
842.2008835442
 20
1554.7426960603
 10
843.1790125288
 20
1559.4208858148
 10
844.1002488799
 20
1563.8269803658
 10
844.962390951
 20
1567.9504296914
 10
845.7633730687
 20
1571.7813394204
 10
846.501278571
 20
1575.3105900422
 10
847.174343533
 20
1578.5297176972
 10
847.7809567667
 20
1581.4310333863
 10
848.3196672715
 20
1584.007563366
 10
848.7891842342
 20
1586.2531683579
 10
849.18838448
 20
1588.162483944
 10
849.5163143344
 20
1589.7309205667
 10
849.7721877612
 20
1590.9547231332
 10
849.9553938127
 20
1591.830971016
 10
850.0654929049
 20
1592.357518448
 10
850.1022224046
 20
1592.5331733361
  0
LWPOLYLINE
  5
2A0
330
1F
100
AcDbEntity
  8
0
  6
PHANTOM
 62
     8
370
     0
100
AcDbPolyline
 90
       32
 70
   128
 43
0.0
 10
723.9367522962
 20
1296.1535475389
 10
723.9404179818
 20
1296.1710713044
 10
724.1236426599
 20
1297.0473489896
 10
724.3795477516
 20
1298.2712409631
 10
724.7075148589
 20
1299.8397669927
 10
725.1067616708
 20
1301.749201788
 10
725.5763270623
 20
1303.9949855939
 10
726.115100897
 20
1306.5716943875
 10
726.7217867739
 20
1309.4732186929
 10
727.3949243791
 20
1312.6925549642
 10
728.1329118378
 20
1316.2220738069
 10
728.9339833624
 20
1320.0532517568
 10
729.7962241537
 20
1324.1769991055
 10
730.7175629503
 20
1328.5833618775
 10
731.6957943804
 20
1333.2618496552
 10
732.7285864122
 20
1338.2012865678
 10
733.8134654529
 20
1343.3898112908
 10
734.9478312499
 20
1348.8150260583
 10
736.1289643414
 20
1354.4639370576
 10
737.3540484078
 20
1360.3230140344
 10
738.6201553709
 20
1366.3782498971
 10
739.9242379434
 20
1372.6151607171
 10
741.263189233
 20
1379.0187857286
 10
742.6337980396
 20
1385.5738661424
 10
744.0327935583
 20
1392.2646663323
 10
745.4568230278
 20
1399.0752122537
 10
746.9024666316
 20
1405.9891722337
 10
748.3662896521
 20
1412.9899761811
 10
749.8447679646
 20
1420.0609347955
 10
751.3343699939
 20
1427.1851203576
 10
752.8315343625
 20
1434.3454263345
 10
754.3326698906
 20
1441.524746193
  0
LWPOLYLINE
  5
2A1
330
1F
100
AcDbEntity
  8
0
  6
PHANTOM
 62
     8
370
     0
100
AcDbPolyline
 90
       31
 70
   128
 43
0.0
 10
754.3338694341
 20
1446.4712760583
 10
752.8326966531
 20
1453.6508343354
 10
751.3355024821
 20
1460.8113191262
 10
749.8458631999
 20
1467.9356835023
 10
748.3673550851
 20
1475.0068805352
 10
746.9034948117
 20
1482.0079229012
 10
745.4578065045
 20
1488.9221212998
 10
744.0337397821
 20
1495.7329056397
 10
742.6347070105
 20
1502.4239442483
 10
741.2640535004
 20
1508.9792630807
 10
739.9250575073
 20
1515.3831861154
 10
738.6209302313
 20
1521.6203353539
 10
737.3547860152
 20
1527.6758692399
 10
736.1296572454
 20
1533.5351846353
 10
734.9484794504
 20
1539.1843340531
 10
733.8140764005
 20
1544.6097276345
 10
732.7291601069
 20
1549.7984907762
 10
731.6963233716
 20
1554.7381661073
 10
730.7180546887
 20
1559.4168326989
 10
729.7966786391
 20
1563.8234636918
 10
728.9344080455
 20
1567.9473302499
 10
728.1333067186
 20
1571.778716816
 10
727.395282007
 20
1575.3083846704
 10
726.7221145994
 20
1578.5279295579
 10
726.1154063709
 20
1581.4296028749
 10
725.576617635
 20
1584.0064308778
 10
725.1070224411
 20
1586.2522742883
 10
724.7077607281
 20
1588.1618282929
 10
724.3797787196
 20
1589.7304437295
 10
724.1238661773
 20
1590.9543655053
 10
723.9573755033
 20
1591.7506239549
  0
SPLINE
  5
2A2
330
1F
100
AcDbEntity
  8
0
  6
PHANTOM
 62
     8
370
     0
100
AcDbSpline
210
0.0
220
0.0
230
1.0
 70
     8
 71
     3
 72
    19
 73
    15
 74
     0
 42
0.000000001
 43
0.00000001
 40
0.0
 40
0.0
 40
0.0
 40
0.0
 40
0.0296979649626942
 40
0.124726119809582
 40
0.2198036345629324
 40
0.3147432102509453
 40
0.4093315003138746
 40
0.5032273160254292
 40
0.5974233544698007
 40
0.691754377918134
 40
0.7860641577345325
 40
0.8802111398711121
 40
0.9740745116386075
 40
1.0
 40
1.0
 40
1.0
 40
1.0
 10
1361.131750858519
 20
1588.336887134647
 30
0.0
 10
1362.850774466085
 20
1588.907306468902
 30
0.0
 10
1370.070364922944
 20
1591.302965239301
 30
0.0
 10
1383.109661822874
 20
1594.486997388521
 30
0.0
 10
1400.155513892566
 20
1597.900859388725
 30
0.0
 10
1417.360665274538
 20
1600.264471802946
 30
0.0
 10
1434.592801406864
 20
1601.685251719559
 30
0.0
 10
1451.832522040291
 20
1602.155409418956
 30
0.0
 10
1469.056823761614
 20
1601.695714276494
 30
0.0
 10
1486.25438211414
 20
1600.292345104213
 30
0.0
 10
1503.352092380017
 20
1597.963191751789
 30
0.0
 10
1520.240569280526
 20
1594.60920977453
 30
0.0
 10
1532.936671507226
 20
1591.533825825928
 30
0.0
 10
1539.883113801469
 20
1589.272106708224
 30
0.0
 10
1541.386508262846
 20
1588.782610668278
 30
0.0
  0
LWPOLYLINE
  5
2A3
330
1F
100
AcDbEntity
  8
0
  6
PHANTOM
 62
     8
370
     0
100
AcDbPolyline
 90
       32
 70
   128
 43
0.0
 10
1514.959894932
 20
1296.1534283296
 10
1514.956199444
 20
1296.1709222928
 10
1514.772974766
 20
1297.047199978
 10
1514.517092026
 20
1298.2710621491
 10
1514.1891472704
 20
1299.8395583764
 10
1513.7899153597
 20
1301.7489633695
 10
1513.3203499682
 20
1303.9946577683
 10
1512.7816431887
 20
1306.5713367597
 10
1512.1749275095
 20
1309.472771658
 10
1511.5018122561
 20
1312.6920483247
 10
1510.7639067538
 20
1316.2214777604
 10
1509.962820328
 20
1320.0525961057
 10
1509.1006391413
 20
1324.1762242452
 10
1508.179330147
 20
1328.5825274125
 10
1507.2011583216
 20
1333.2608959809
 10
1506.1683886416
 20
1338.2002136842
 10
1505.083524502
 20
1343.3886191979
 10
1503.9491885073
 20
1348.8137147561
 10
1502.7681224711
 20
1354.4625065461
 10
1501.543068207
 20
1360.3214643136
 10
1500.2770059473
 20
1366.376580967
 10
1498.9729755289
 20
1372.6133725778
 10
1497.6340763933
 20
1379.0169379846
 10
1496.2635271914
 20
1385.5718991891
 10
1494.8645465739
 20
1392.2625801698
 10
1493.4405916102
 20
1399.0730068818
 10
1491.9950001604
 20
1405.9868476525
 10
1490.531229294
 20
1412.9875323907
 10
1489.052795685
 20
1420.0584314004
 10
1487.5632160074
 20
1427.1824977532
 10
1486.06606654
 20
1434.3426845208
 10
1484.564983166
 20
1441.5219447747
  0
LWPOLYLINE
  5
2A4
330
1F
100
AcDbEntity
  8
0
  6
PHANTOM
 62
     8
370
     0
100
AcDbPolyline
 90
       33
 70
   128
 43
0.0
 10
1484.5661752588
 20
1446.4854023591
 10
1486.0671990282
 20
1453.6644837991
 10
1487.5642292864
 20
1460.8244917527
 10
1489.0536897547
 20
1467.9483792916
 10
1490.5320637591
 20
1475.0190398828
 10
1491.9957154162
 20
1482.019545807
 10
1493.4412472613
 20
1488.9331481591
 10
1494.8651426203
 20
1495.7433364526
 10
1496.2640040285
 20
1502.4337790147
 10
1497.6344936259
 20
1508.9885018006
 10
1498.9733331568
 20
1515.3918287889
 10
1500.2772443659
 20
1521.628381981
 10
1501.5432470209
 20
1527.6832602159
 10
1502.7681820757
 20
1533.5419795648
 10
1503.9491885073
 20
1539.1905329362
 10
1505.0834648974
 20
1544.6153900758
 10
1506.1682098276
 20
1549.803557171
 10
1507.2008602984
 20
1554.7426960603
 10
1508.1790321238
 20
1559.4208858148
 10
1509.1002219088
 20
1563.8269803658
 10
1509.9624030955
 20
1567.9504296914
 10
1510.7633703119
 20
1571.7813394204
 10
1511.5012758143
 20
1575.3105900422
 10
1512.1743314631
 20
1578.5297176972
 10
1512.780927933
 20
1581.4310333863
 10
1513.3196943171
 20
1584.007563366
 10
1513.789200104
 20
1586.2531683579
 10
1514.18837241
 20
1588.162483944
 10
1514.5163171656
 20
1589.7309205667
 10
1514.7721999056
 20
1590.9547231332
 10
1514.955364979
 20
1591.830971016
 10
1515.0655143625
 20
1592.357518448
 10
1515.1022308237
 20
1592.5331733361
  0
LWPOLYLINE
  5
2A5
330
1F
100
AcDbEntity
  8
0
  6
PHANTOM
 62
     8
370
     0
100
AcDbPolyline
 90
       32
 70
   128
 43
0.0
 10
1388.9367812044
 20
1296.1535475389
 10
1388.9404170878
 20
1296.1710713044
 10
1389.1236417658
 20
1297.0473489896
 10
1389.3795245058
 20
1298.2712409631
 10
1389.707528866
 20
1299.8397669927
 10
1390.1067607767
 20
1301.749201788
 10
1390.5763261683
 20
1303.9949855939
 10
1391.1150925524
 20
1306.5716943875
 10
1391.7218082316
 20
1309.4732186929
 10
1392.394923485
 20
1312.6925549642
 10
1393.132888592
 20
1316.2220738069
 10
1393.9339750178
 20
1320.0532517568
 10
1394.7962158091
 20
1324.1769991055
 10
1395.717584408
 20
1328.5833618775
 10
1396.6958158381
 20
1333.2618496552
 10
1397.7285855181
 20
1338.2012865678
 10
1398.8134496577
 20
1343.3898112908
 10
1399.947845257
 20
1348.8150260583
 10
1401.1289708979
 20
1354.4639370576
 10
1402.354025162
 20
1360.3230140344
 10
1403.6201470263
 20
1366.3782498971
 10
1404.9242370493
 20
1372.6151607171
 10
1406.2631957895
 20
1379.0187857286
 10
1407.6338045962
 20
1385.5738661424
 10
1409.0327852137
 20
1392.2646663323
 10
1410.456799782
 20
1399.0752122537
 10
1411.9024508364
 20
1405.9891722337
 10
1413.3662813074
 20
1412.9899761811
 10
1414.8447745211
 20
1420.0609347955
 10
1416.3343541987
 20
1427.1851203576
 10
1417.8315036661
 20
1434.3454263345
 10
1419.3326466448
 20
1441.524746193
  0
LWPOLYLINE
  5
2A6
330
1F
100
AcDbEntity
  8
0
  6
PHANTOM
 62
     8
370
     0
100
AcDbPolyline
 90
       31
 70
   128
 43
0.0
 10
1419.3338387377
 20
1446.4712760583
 10
1417.832695759
 20
1453.6508343354
 10
1416.3354866869
 20
1460.8113191262
 10
1414.8458474047
 20
1467.9356835023
 10
1413.367354191
 20
1475.0068805352
 10
1411.90352372
 20
1482.0079229012
 10
1410.457813061
 20
1488.9221212998
 10
1409.033738888
 20
1495.7329056397
 10
1407.6346986658
 20
1502.4239442483
 10
1406.2640302546
 20
1508.9792630807
 10
1404.9250715143
 20
1515.3831861154
 10
1403.6209218867
 20
1521.6203353539
 10
1402.3548000223
 20
1527.6758692399
 10
1401.1296861536
 20
1533.5351846353
 10
1399.9485009081
 20
1539.1843340531
 10
1398.8140457041
 20
1544.6097276345
 10
1397.7291815645
 20
1549.7984907762
 10
1396.6963522799
 20
1554.7381661073
 10
1395.7180612452
 20
1559.4168326989
 10
1394.7966926462
 20
1563.8234636918
 10
1393.9343922503
 20
1567.9473302499
 10
1393.1333058245
 20
1571.778716816
 10
1392.3952811129
 20
1575.3083846704
 10
1391.7221062548
 20
1578.5279295579
 10
1391.1153905756
 20
1581.4296028749
 10
1390.5766241915
 20
1584.0064308778
 10
1390.1069991953
 20
1586.2522742883
 10
1389.7077672846
 20
1588.1618282929
 10
1389.3797629244
 20
1589.7304437295
 10
1389.1238801844
 20
1590.9543655053
 10
1388.9573448069
 20
1591.7506239549
  0
LINE
  5
2A7
330
1F
100
AcDbEntity
  8
0
  6
PHANTOM
 62
     8
370
     0
100
AcDbLine
 10
314.4485586054
 20
1212.8270588056
 30
0.0
 11
1924.4485729105
 21
1212.8270588056
 31
0.0
  0
ARC
  5
2A8
330
1F
100
AcDbEntity
  8
0
  6
PHANTOM
 62
     8
370
     0
100
AcDbCircle
 10
314.44853924
 20
1229.8583453866
 30
0.0
 40
17.03128057732874
100
AcDbArc
 50
180.0
 51
270.0
  0
LINE
  5
2A9
330
1F
100
AcDbEntity
  8
0
  6
PHANTOM
 62
     8
370
     0
100
AcDbLine
 10
297.4172466166
 20
1774.8583576814
 30
0.0
 11
297.4172466166
 21
1229.8583409921
 31
0.0
  0
LINE
  5
2AA
330
1F
100
AcDbEntity
  8
0
  6
PHANTOM
 62
     8
370
     0
100
AcDbLine
 10
1941.4797656901
 20
1229.8583409921
 30
0.0
 11
1941.4797656901
 21
1774.8583576814
 31
0.0
  0
ARC
  5
2AB
330
1F
100
AcDbEntity
  8
0
  6
PHANTOM
 62
     8
370
     0
100
AcDbCircle
 10
1924.44853924
 20
1229.8583453866
 30
0.0
 40
17.03128057732874
100
AcDbArc
 50
270.0
 51
0.0
  0
ARC
  5
2AC
330
1F
100
AcDbEntity
  8
0
  6
PHANTOM
 62
     8
370
     0
100
AcDbCircle
 10
1646.94853924
 20
1724.8583453866
 30
0.0
 40
23.00000000000023
100
AcDbArc
 50
90.0
 51
180.0
  0
LINE
  5
2AD
330
1F
100
AcDbEntity
  8
0
  6
PHANTOM
 62
     8
370
     0
100
AcDbLine
 10
1623.9485376246
 20
1669.8583386079
 30
0.0
 11
1623.9485376246
 21
1724.8583457604
 31
0.0
  0
ARC
  5
2AE
330
1F
100
AcDbEntity
  8
0
  6
PHANTOM
 62
     8
370
     0
100
AcDbCircle
 10
1606.94853924
 20
1669.8583453866
 30
0.0
 40
17.0
100
AcDbArc
 50
270.0
 51
0.0
  0
LINE
  5
2AF
330
1F
100
AcDbEntity
  8
0
  6
PHANTOM
 62
     8
370
     0
100
AcDbLine
 10
1296.9485454924
 20
1652.8583190576
 30
0.0
 11
1606.9485180742
 21
1652.8583190576
 31
0.0
  0
ARC
  5
2B0
330
1F
100
AcDbEntity
  8
0
  6
PHANTOM
 62
     8
370
     0
100
AcDbCircle
 10
1296.94853924
 20
1669.8583453866
 30
0.0
 40
17.0
100
AcDbArc
 50
180.0
 51
270.0
  0
LINE
  5
2B1
330
1F
100
AcDbEntity
  8
0
  6
PHANTOM
 62
     8
370
     0
100
AcDbLine
 10
1279.9485259421
 20
1724.8583457604
 30
0.0
 11
1279.9485259421
 21
1669.8583386079
 31
0.0
  0
ARC
  5
2B2
330
1F
100
AcDbEntity
  8
0
  6
PHANTOM
 62
     8
370
     0
100
AcDbCircle
 10
1256.94853924
 20
1724.8583453866
 30
0.0
 40
23.00000000000023
100
AcDbArc
 50
0.0
 51
90.0
  0
LINE
  5
2B3
330
1F
100
AcDbEntity
  8
0
  6
PHANTOM
 62
     8
370
     0
100
AcDbLine
 10
981.9485329754
 20
1747.8583476678
 30
0.0
 11
1256.948553837
 21
1747.8583476678
 31
0.0
  0
ARC
  5
2B4
330
1F
100
AcDbEntity
  8
0
  6
PHANTOM
 62
     8
370
     0
100
AcDbCircle
 10
981.94853924
 20
1724.8583453866
 30
0.0
 40
23.0
100
AcDbArc
 50
90.0
 51
180.0
  0
LINE
  5
2B5
330
1F
100
AcDbEntity
  8
0
  6
PHANTOM
 62
     8
370
     0
100
AcDbLine
 10
958.9485459692
 20
1669.8583386079
 30
0.0
 11
958.9485459692
 21
1724.8583457604
 31
0.0
  0
ARC
  5
2B6
330
1F
100
AcDbEntity
  8
0
  6
PHANTOM
 62
     8
370
     0
100
AcDbCircle
 10
941.94853924
 20
1669.8583453866
 30
0.0
 40
17.0
100
AcDbArc
 50
270.0
 51
0.0
  0
LINE
  5
2B7
330
1F
100
AcDbEntity
  8
0
  6
PHANTOM
 62
     8
370
     0
100
AcDbLine
 10
631.9485389359
 20
1652.8583190576
 30
0.0
 11
941.9485413201
 21
1652.8583190576
 31
0.0
  0
ARC
  5
2B8
330
1F
100
AcDbEntity
  8
0
  6
PHANTOM
 62
     8
370
     0
100
AcDbCircle
 10
631.94853924
 20
1669.8583453866
 30
0.0
 40
17.00000000000011
100
AcDbArc
 50
180.0
 51
270.0
  0
LINE
  5
2B9
330
1F
100
AcDbEntity
  8
0
  6
PHANTOM
 62
     8
370
     0
100
AcDbLine
 10
614.9485342867
 20
1724.8583457604
 30
0.0
 11
614.9485342867
 21
1669.8583386079
 31
0.0
  0
ARC
  5
2BA
330
1F
100
AcDbEntity
  8
0
  6
PHANTOM
 62
     8
370
     0
100
AcDbCircle
 10
591.94853924
 20
1724.8583453866
 30
0.0
 40
23.00000000000023
100
AcDbArc
 50
0.0
 51
90.0
  0
LINE
  5
2BB
330
1F
100
AcDbEntity
  8
0
  6
PHANTOM
 62
     8
370
     0
100
AcDbLine
 10
344.4485299952
 20
1747.8583476678
 30
0.0
 11
591.9485323794
 21
1747.8583476678
 31
0.0
  0
ARC
  5
2BC
330
1F
100
AcDbEntity
  8
0
  6
PHANTOM
 62
     8
370
     0
100
AcDbCircle
 10
344.44853924
 20
1724.8583453866
 30
0.0
 40
23.0
100
AcDbArc
 50
90.0
 51
180.0
  0
LINE
  5
2BD
330
1F
100
AcDbEntity
  8
0
  6
PHANTOM
 62
     8
370
     0
100
AcDbLine
 10
321.4485280878
 20
1259.8583421842
 30
0.0
 11
321.4485280878
 21
1724.8583457604
 31
0.0
  0
ARC
  5
2BE
330
1F
100
AcDbEntity
  8
0
  6
PHANTOM
 62
     8
370
     0
100
AcDbCircle
 10
344.44853924
 20
1259.8583453866
 30
0.0
 40
23.00000000000023
100
AcDbArc
 50
180.0
 51
270.0
  0
LINE
  5
2BF
330
1F
100
AcDbEntity
  8
0
  6
PHANTOM
 62
     8
370
     0
100
AcDbLine
 10
1894.4484823115
 20
1236.8583402768
 30
0.0
 11
344.4485299952
 21
1236.8583402768
 31
0.0
  0
ARC
  5
2C0
330
1F
100
AcDbEntity
  8
0
  6
PHANTOM
 62
     8
370
     0
100
AcDbCircle
 10
1894.44853924
 20
1259.8583453866
 30
0.0
 40
23.00000000000023
100
AcDbArc
 50
270.0
 51
0.0
  0
LINE
  5
2C1
330
1F
100
AcDbEntity
  8
0
  6
PHANTOM
 62
     8
370
     0
100
AcDbLine
 10
1917.4484842188
 20
1724.8583457604
 30
0.0
 11
1917.4484842188
 21
1259.8583421842
 31
0.0
  0
ARC
  5
2C2
330
1F
100
AcDbEntity
  8
0
  6
PHANTOM
 62
     8
370
     0
100
AcDbCircle
 10
1894.44853924
 20
1724.8583453866
 30
0.0
 40
23.00000000000023
100
AcDbArc
 50
0.0
 51
90.0
  0
LINE
  5
2C3
330
1F
100
AcDbEntity
  8
0
  6
PHANTOM
 62
     8
370
     0
100
AcDbLine
 10
1646.9485395319
 20
1747.8583476678
 30
0.0
 11
1894.4484823115
 21
1747.8583476678
 31
0.0
  0
LINE
  5
2C4
330
1F
100
AcDbEntity
  8
0
  6
PHANTOM
 62
     8
370
     0
100
AcDbLine
 10
1944.4739454157
 20
1774.8583576814
 30
0.0
 11
1944.4739454157
 21
1229.8583409921
 31
0.0
  0
LINE
  5
2C5
330
1F
100
AcDbEntity
  8
0
  6
PHANTOM
 62
     8
370
     0
100
AcDbLine
 10
1941.4797656901
 20
1229.8583409921
 30
0.0
 11
1944.4739454157
 21
1229.8583409921
 31
0.0
  0
LINE
  5
2C6
330
1F
100
AcDbEntity
  8
0
  6
PHANTOM
 62
     8
370
     0
100
AcDbLine
 10
297.4172466166
 20
1229.8583409921
 30
0.0
 11
294.4231264956
 21
1229.8583409921
 31
0.0
  0
LINE
  5
2C7
330
1F
100
AcDbEntity
  8
0
  6
PHANTOM
 62
     8
370
     0
100
AcDbLine
 10
294.4231264956
 20
1229.8583409921
 30
0.0
 11
294.4231264956
 21
1774.8583576814
 31
0.0
  0
LINE
  5
2C8
330
1F
100
AcDbEntity
  8
0
  6
PHANTOM
 62
     8
370
     0
100
AcDbLine
 10
344.4485299952
 20
1744.858326687
 30
0.0
 11
344.4485299952
 21
1747.8583476678
 31
0.0
  0
LINE
  5
2C9
330
1F
100
AcDbEntity
  8
0
  6
PHANTOM
 62
     8
370
     0
100
AcDbLine
 10
591.9485323794
 20
1744.858326687
 30
0.0
 11
591.9485323794
 21
1747.8583476678
 31
0.0
  0
LINE
  5
2CA
330
1F
100
AcDbEntity
  8
0
  6
PHANTOM
 62
     8
370
     0
100
AcDbLine
 10
1256.948553837
 20
1747.8583476678
 30
0.0
 11
1256.948553837
 21
1744.858326687
 31
0.0
  0
LINE
  5
2CB
330
1F
100
AcDbEntity
  8
0
  6
PHANTOM
 62
     8
370
     0
100
AcDbLine
 10
981.9485329754
 20
1747.8583476678
 30
0.0
 11
981.9485329754
 21
1744.858326687
 31
0.0
  0
LINE
  5
2CC
330
1F
100
AcDbEntity
  8
0
  6
PHANTOM
 62
     8
370
     0
100
AcDbLine
 10
1646.9485395319
 20
1747.8583476678
 30
0.0
 11
1646.9485395319
 21
1744.858326687
 31
0.0
  0
LINE
  5
2CD
330
1F
100
AcDbEntity
  8
0
  6
PHANTOM
 62
     8
370
     0
100
AcDbLine
 10
1623.9485376246
 20
1724.8583457604
 30
0.0
 11
1626.9485586054
 21
1724.8583457604
 31
0.0
  0
LINE
  5
2CE
330
1F
100
AcDbEntity
  8
0
  6
PHANTOM
 62
     8
370
     0
100
AcDbLine
 10
1279.9485259421
 20
1724.8583457604
 30
0.0
 11
1276.9485347635
 21
1724.8583457604
 31
0.0
  0
LINE
  5
2CF
330
1F
100
AcDbEntity
  8
0
  6
PHANTOM
 62
     8
370
     0
100
AcDbLine
 10
1914.4485824473
 20
1724.8583457604
 30
0.0
 11
1917.4484842188
 21
1724.8583457604
 31
0.0
  0
LINE
  5
2D0
330
1F
100
AcDbEntity
  8
0
  6
PHANTOM
 62
     8
370
     0
100
AcDbLine
 10
1894.4484823115
 20
1747.8583476678
 30
0.0
 11
1894.4484823115
 21
1744.858326687
 31
0.0
  0
LINE
  5
2D1
330
1F
100
AcDbEntity
  8
0
  6
PHANTOM
 62
     8
370
     0
100
AcDbLine
 10
611.9485431082
 20
1724.8583457604
 30
0.0
 11
614.9485342867
 21
1724.8583457604
 31
0.0
  0
LINE
  5
2D2
330
1F
100
AcDbEntity
  8
0
  6
PHANTOM
 62
     8
370
     0
100
AcDbLine
 10
324.4485490687
 20
1724.8583457604
 30
0.0
 11
321.4485280878
 21
1724.8583457604
 31
0.0
  0
LINE
  5
2D3
330
1F
100
AcDbEntity
  8
0
  6
PHANTOM
 62
     8
370
     0
100
AcDbLine
 10
958.9485459692
 20
1724.8583457604
 30
0.0
 11
961.9485371477
 21
1724.8583457604
 31
0.0
  0
LINE
  5
2D4
330
1F
100
AcDbEntity
  8
0
  6
PHANTOM
 62
     8
370
     0
100
AcDbLine
 10
324.4485490687
 20
1259.8583421842
 30
0.0
 11
321.4485280878
 21
1259.8583421842
 31
0.0
  0
LINE
  5
2D5
330
1F
100
AcDbEntity
  8
0
  6
PHANTOM
 62
     8
370
     0
100
AcDbLine
 10
611.9485431082
 20
1669.8583386079
 30
0.0
 11
614.9485342867
 21
1669.8583386079
 31
0.0
  0
LINE
  5
2D6
330
1F
100
AcDbEntity
  8
0
  6
PHANTOM
 62
     8
370
     0
100
AcDbLine
 10
958.9485459692
 20
1669.8583386079
 30
0.0
 11
961.9485371477
 21
1669.8583386079
 31
0.0
  0
LINE
  5
2D7
330
1F
100
AcDbEntity
  8
0
  6
PHANTOM
 62
     8
370
     0
100
AcDbLine
 10
1623.9485376246
 20
1669.8583386079
 30
0.0
 11
1626.9485586054
 21
1669.8583386079
 31
0.0
  0
LINE
  5
2D8
330
1F
100
AcDbEntity
  8
0
  6
PHANTOM
 62
     8
370
     0
100
AcDbLine
 10
1914.4485824473
 20
1259.8583421842
 30
0.0
 11
1917.4484842188
 21
1259.8583421842
 31
0.0
  0
LINE
  5
2D9
330
1F
100
AcDbEntity
  8
0
  6
PHANTOM
 62
     8
370
     0
100
AcDbLine
 10
1279.9485259421
 20
1669.8583386079
 30
0.0
 11
1276.9485347635
 21
1669.8583386079
 31
0.0
  0
LINE
  5
2DA
330
1F
100
AcDbEntity
  8
0
  6
PHANTOM
 62
     8
370
     0
100
AcDbLine
 10
1296.9485454924
 20
1652.8583190576
 30
0.0
 11
1296.9485454924
 21
1649.8583576814
 31
0.0
  0
LINE
  5
2DB
330
1F
100
AcDbEntity
  8
0
  6
PHANTOM
 62
     8
370
     0
100
AcDbLine
 10
631.9485389359
 20
1649.8583576814
 30
0.0
 11
631.9485389359
 21
1652.8583190576
 31
0.0
  0
LINE
  5
2DC
330
1F
100
AcDbEntity
  8
0
  6
PHANTOM
 62
     8
370
     0
100
AcDbLine
 10
1606.9485180742
 20
1652.8583190576
 30
0.0
 11
1606.9485180742
 21
1649.8583576814
 31
0.0
  0
LINE
  5
2DD
330
1F
100
AcDbEntity
  8
0
  6
PHANTOM
 62
     8
370
     0
100
AcDbLine
 10
941.9485413201
 20
1649.8583576814
 30
0.0
 11
941.9485413201
 21
1652.8583190576
 31
0.0
  0
LINE
  5
2DE
330
1F
100
AcDbEntity
  8
0
  6
PHANTOM
 62
     8
370
     0
100
AcDbLine
 10
344.4485299952
 20
1239.8583314553
 30
0.0
 11
344.4485299952
 21
1236.8583402768
 31
0.0
  0
LINE
  5
2DF
330
1F
100
AcDbEntity
  8
0
  6
PHANTOM
 62
     8
370
     0
100
AcDbLine
 10
1894.4484823115
 20
1239.8583314553
 30
0.0
 11
1894.4484823115
 21
1236.8583402768
 31
0.0
  0
LINE
  5
2E0
330
1F
100
AcDbEntity
  8
0
  6
PHANTOM
 62
     8
370
     0
100
AcDbLine
 10
314.4485586054
 20
1212.8270588056
 30
0.0
 11
314.4485586054
 21
1209.8329386846
 31
0.0
  0
ARC
  5
2E1
330
1F
100
AcDbEntity
  8
0
  6
PHANTOM
 62
     8
370
     0
100
AcDbCircle
 10
314.44853924
 20
1229.8583453866
 30
0.0
 40
20.02541546907963
100
AcDbArc
 50
180.0
 51
270.0
  0
ARC
  5
2E2
330
1F
100
AcDbEntity
  8
0
  6
PHANTOM
 62
     8
370
     0
100
AcDbCircle
 10
1924.44853924
 20
1229.8583453866
 30
0.0
 40
20.02541546907969
100
AcDbArc
 50
270.0
 51
0.0
  0
LINE
  5
2E3
330
1F
100
AcDbEntity
  8
0
  6
PHANTOM
 62
     8
370
     0
100
AcDbLine
 10
1924.4485729105
 20
1212.8270588056
 30
0.0
 11
1924.4485729105
 21
1209.8329386846
 31
0.0
  0
LINE
  5
2E4
330
1F
100
AcDbEntity
  8
0
  6
PHANTOM
 62
     8
370
     0
100
AcDbLine
 10
1924.4485729105
 20
1209.8329386846
 30
0.0
 11
314.4485586054
 21
1209.8329386846
 31
0.0
  0
LINE
  5
2E5
330
1F
100
AcDbEntity
  8
0
  6
PHANTOM
 62
     8
370
     0
100
AcDbLine
 10
1957.4485652811
 20
1774.8583576814
 30
0.0
 11
1957.4485652811
 21
1229.8583409921
 31
0.0
  0
LINE
  5
2E6
330
1F
100
AcDbEntity
  8
0
  6
PHANTOM
 62
     8
370
     0
100
AcDbLine
 10
1957.4485652811
 20
1229.8583409921
 30
0.0
 11
1944.4739454157
 21
1229.8583409921
 31
0.0
  0
LINE
  5
2E7
330
1F
100
AcDbEntity
  8
0
  6
PHANTOM
 62
     8
370
     0
100
AcDbLine
 10
281.4485662348
 20
1229.8583409921
 30
0.0
 11
281.4485662348
 21
1774.8583576814
 31
0.0
  0
LINE
  5
2E8
330
1F
100
AcDbEntity
  8
0
  6
PHANTOM
 62
     8
370
     0
100
AcDbLine
 10
294.4231264956
 20
1229.8583409921
 30
0.0
 11
281.4485662348
 21
1229.8583409921
 31
0.0
  0
ARC
  5
2E9
330
1F
100
AcDbEntity
  8
0
  6
PHANTOM
 62
     8
370
     0
100
AcDbCircle
 10
314.44853924
 20
1229.8583453866
 30
0.0
 40
33.00000000000006
100
AcDbArc
 50
180.0
 51
270.0
  0
LINE
  5
2EA
330
1F
100
AcDbEntity
  8
0
  6
PHANTOM
 62
     8
370
     0
100
AcDbLine
 10
314.4485586054
 20
1196.8583486215
 30
0.0
 11
314.4485586054
 21
1209.8329386846
 31
0.0
  0
ARC
  5
2EB
330
1F
100
AcDbEntity
  8
0
  6
PHANTOM
 62
     8
370
     0
100
AcDbCircle
 10
1924.44853924
 20
1229.8583453866
 30
0.0
 40
33.00000000000023
100
AcDbArc
 50
270.0
 51
0.0
  0
LINE
  5
2EC
330
1F
100
AcDbEntity
  8
0
  6
PHANTOM
 62
     8
370
     0
100
AcDbLine
 10
1924.4485729105
 20
1196.8583486215
 30
0.0
 11
1924.4485729105
 21
1209.8329386846
 31
0.0
  0
LINE
  5
2ED
330
1F
100
AcDbEntity
  8
0
  6
PHANTOM
 62
     8
370
     0
100
AcDbLine
 10
1924.4485729105
 20
1196.8583486215
 30
0.0
 11
314.4485586054
 21
1196.8583486215
 31
0.0
  0
ARC
  5
2EE
330
1F
100
AcDbEntity
  8
0
  6
PHANTOM
 62
     8
370
     0
100
AcDbCircle
 10
1894.44853924
 20
1724.8583453866
 30
0.0
 40
15.00000000000068
100
AcDbArc
 50
0.0
 51
90.0
  0
LINE
  5
2EF
330
1F
100
AcDbEntity
  8
0
  6
PHANTOM
 62
     8
370
     0
100
AcDbLine
 10
1894.4484823115
 20
1744.858326687
 30
0.0
 11
1894.4484823115
 21
1739.8583314553
 31
0.0
  0
LINE
  5
2F0
330
1F
100
AcDbEntity
  8
0
  6
PHANTOM
 62
     8
370
     0
100
AcDbLine
 10
1909.4485872156
 20
1724.8583457604
 30
0.0
 11
1914.4485824473
 21
1724.8583457604
 31
0.0
  0
ARC
  5
2F1
330
1F
100
AcDbEntity
  8
0
  6
PHANTOM
 62
     8
370
     0
100
AcDbCircle
 10
344.44853924
 20
1724.8583453866
 30
0.0
 40
15.0
100
AcDbArc
 50
90.0
 51
180.0
  0
LINE
  5
2F2
330
1F
100
AcDbEntity
  8
0
  6
PHANTOM
 62
     8
370
     0
100
AcDbLine
 10
329.4485443003
 20
1724.8583457604
 30
0.0
 11
324.4485490687
 21
1724.8583457604
 31
0.0
  0
LINE
  5
2F3
330
1F
100
AcDbEntity
  8
0
  6
PHANTOM
 62
     8
370
     0
100
AcDbLine
 10
344.4485299952
 20
1739.8583314553
 30
0.0
 11
344.4485299952
 21
1744.858326687
 31
0.0
  0
LINE
  5
2F4
330
1F
100
AcDbEntity
  8
0
  6
PHANTOM
 62
     8
370
     0
100
AcDbLine
 10
591.9485323794
 20
1739.8583314553
 30
0.0
 11
344.4485299952
 21
1739.8583314553
 31
0.0
  0
LINE
  5
2F5
330
1F
100
AcDbEntity
  8
0
  6
PHANTOM
 62
     8
370
     0
100
AcDbLine
 10
591.9485323794
 20
1739.8583314553
 30
0.0
 11
591.9485323794
 21
1744.858326687
 31
0.0
  0
LINE
  5
2F6
330
1F
100
AcDbEntity
  8
0
  6
PHANTOM
 62
     8
370
     0
100
AcDbLine
 10
1256.948553837
 20
1744.858326687
 30
0.0
 11
1256.948553837
 21
1739.8583314553
 31
0.0
  0
LINE
  5
2F7
330
1F
100
AcDbEntity
  8
0
  6
PHANTOM
 62
     8
370
     0
100
AcDbLine
 10
1256.948553837
 20
1739.8583314553
 30
0.0
 11
981.9485329754
 21
1739.8583314553
 31
0.0
  0
LINE
  5
2F8
330
1F
100
AcDbEntity
  8
0
  6
PHANTOM
 62
     8
370
     0
100
AcDbLine
 10
981.9485329754
 20
1744.858326687
 30
0.0
 11
981.9485329754
 21
1739.8583314553
 31
0.0
  0
LINE
  5
2F9
330
1F
100
AcDbEntity
  8
0
  6
PHANTOM
 62
     8
370
     0
100
AcDbLine
 10
1646.9485395319
 20
1744.858326687
 30
0.0
 11
1646.9485395319
 21
1739.8583314553
 31
0.0
  0
ARC
  5
2FA
330
1F
100
AcDbEntity
  8
0
  6
PHANTOM
 62
     8
370
     0
100
AcDbCircle
 10
1646.94853924
 20
1724.8583453866
 30
0.0
 40
15.00000000000023
100
AcDbArc
 50
90.0
 51
180.0
  0
LINE
  5
2FB
330
1F
100
AcDbEntity
  8
0
  6
PHANTOM
 62
     8
370
     0
100
AcDbLine
 10
1626.9485586054
 20
1724.8583457604
 30
0.0
 11
1631.948553837
 21
1724.8583457604
 31
0.0
  0
LINE
  5
2FC
330
1F
100
AcDbEntity
  8
0
  6
PHANTOM
 62
     8
370
     0
100
AcDbLine
 10
1894.4484823115
 20
1739.8583314553
 30
0.0
 11
1646.9485395319
 21
1739.8583314553
 31
0.0
  0
ARC
  5
2FD
330
1F
100
AcDbEntity
  8
0
  6
PHANTOM
 62
     8
370
     0
100
AcDbCircle
 10
591.94853924
 20
1724.8583453866
 30
0.0
 40
15.00000000000023
100
AcDbArc
 50
0.0
 51
90.0
  0
LINE
  5
2FE
330
1F
100
AcDbEntity
  8
0
  6
PHANTOM
 62
     8
370
     0
100
AcDbLine
 10
606.9485329754
 20
1724.8583457604
 30
0.0
 11
611.9485431082
 21
1724.8583457604
 31
0.0
  0
ARC
  5
2FF
330
1F
100
AcDbEntity
  8
0
  6
PHANTOM
 62
     8
370
     0
100
AcDbCircle
 10
981.94853924
 20
1724.8583453866
 30
0.0
 40
15.0
100
AcDbArc
 50
90.0
 51
180.0
  0
LINE
  5
300
330
1F
100
AcDbEntity
  8
0
  6
PHANTOM
 62
     8
370
     0
100
AcDbLine
 10
961.9485371477
 20
1724.8583457604
 30
0.0
 11
966.9485323794
 21
1724.8583457604
 31
0.0
  0
LINE
  5
301
330
1F
100
AcDbEntity
  8
0
  6
PHANTOM
 62
     8
370
     0
100
AcDbLine
 10
1276.9485347635
 20
1724.8583457604
 30
0.0
 11
1271.9485395319
 21
1724.8583457604
 31
0.0
  0
ARC
  5
302
330
1F
100
AcDbEntity
  8
0
  6
PHANTOM
 62
     8
370
     0
100
AcDbCircle
 10
1256.94853924
 20
1724.8583453866
 30
0.0
 40
15.00000000000023
100
AcDbArc
 50
0.0
 51
90.0
  0
LINE
  5
303
330
1F
100
AcDbEntity
  8
0
  6
PHANTOM
 62
     8
370
     0
100
AcDbLine
 10
606.9485329754
 20
1669.8583386079
 30
0.0
 11
606.9485329754
 21
1724.8583457604
 31
0.0
  0
LINE
  5
304
330
1F
100
AcDbEntity
  8
0
  6
PHANTOM
 62
     8
370
     0
100
AcDbLine
 10
606.9485329754
 20
1669.8583386079
 30
0.0
 11
611.9485431082
 21
1669.8583386079
 31
0.0
  0
LINE
  5
305
330
1F
100
AcDbEntity
  8
0
  6
PHANTOM
 62
     8
370
     0
100
AcDbLine
 10
1276.9485347635
 20
1669.8583386079
 30
0.0
 11
1271.9485395319
 21
1669.8583386079
 31
0.0
  0
LINE
  5
306
330
1F
100
AcDbEntity
  8
0
  6
PHANTOM
 62
     8
370
     0
100
AcDbLine
 10
1271.9485395319
 20
1669.8583386079
 30
0.0
 11
1271.9485395319
 21
1724.8583457604
 31
0.0
  0
LINE
  5
307
330
1F
100
AcDbEntity
  8
0
  6
PHANTOM
 62
     8
370
     0
100
AcDbLine
 10
966.9485323794
 20
1724.8583457604
 30
0.0
 11
966.9485323794
 21
1669.8583386079
 31
0.0
  0
LINE
  5
308
330
1F
100
AcDbEntity
  8
0
  6
PHANTOM
 62
     8
370
     0
100
AcDbLine
 10
961.9485371477
 20
1669.8583386079
 30
0.0
 11
966.9485323794
 21
1669.8583386079
 31
0.0
  0
LINE
  5
309
330
1F
100
AcDbEntity
  8
0
  6
PHANTOM
 62
     8
370
     0
100
AcDbLine
 10
1631.948553837
 20
1724.8583457604
 30
0.0
 11
1631.948553837
 21
1669.8583386079
 31
0.0
  0
LINE
  5
30A
330
1F
100
AcDbEntity
  8
0
  6
PHANTOM
 62
     8
370
     0
100
AcDbLine
 10
1626.9485586054
 20
1669.8583386079
 30
0.0
 11
1631.948553837
 21
1669.8583386079
 31
0.0
  0
LINE
  5
30B
330
1F
100
AcDbEntity
  8
0
  6
PHANTOM
 62
     8
370
     0
100
AcDbLine
 10
329.4485443003
 20
1724.8583457604
 30
0.0
 11
329.4485443003
 21
1259.8583421842
 31
0.0
  0
LINE
  5
30C
330
1F
100
AcDbEntity
  8
0
  6
PHANTOM
 62
     8
370
     0
100
AcDbLine
 10
329.4485443003
 20
1259.8583421842
 30
0.0
 11
324.4485490687
 21
1259.8583421842
 31
0.0
  0
LINE
  5
30D
330
1F
100
AcDbEntity
  8
0
  6
PHANTOM
 62
     8
370
     0
100
AcDbLine
 10
1909.4485872156
 20
1259.8583421842
 30
0.0
 11
1909.4485872156
 21
1724.8583457604
 31
0.0
  0
LINE
  5
30E
330
1F
100
AcDbEntity
  8
0
  6
PHANTOM
 62
     8
370
     0
100
AcDbLine
 10
1909.4485872156
 20
1259.8583421842
 30
0.0
 11
1914.4485824473
 21
1259.8583421842
 31
0.0
  0
ARC
  5
30F
330
1F
100
AcDbEntity
  8
0
  6
PHANTOM
 62
     8
370
     0
100
AcDbCircle
 10
941.94853924
 20
1669.8583453866
 30
0.0
 40
25.0
100
AcDbArc
 50
270.0
 51
0.0
  0
LINE
  5
310
330
1F
100
AcDbEntity
  8
0
  6
PHANTOM
 62
     8
370
     0
100
AcDbLine
 10
941.9485413201
 20
1644.8583624497
 30
0.0
 11
941.9485413201
 21
1649.8583576814
 31
0.0
  0
ARC
  5
311
330
1F
100
AcDbEntity
  8
0
  6
PHANTOM
 62
     8
370
     0
100
AcDbCircle
 10
631.94853924
 20
1669.8583453866
 30
0.0
 40
25.00000000000011
100
AcDbArc
 50
180.0
 51
270.0
  0
LINE
  5
312
330
1F
100
AcDbEntity
  8
0
  6
PHANTOM
 62
     8
370
     0
100
AcDbLine
 10
631.9485389359
 20
1644.8583624497
 30
0.0
 11
631.9485389359
 21
1649.8583576814
 31
0.0
  0
LINE
  5
313
330
1F
100
AcDbEntity
  8
0
  6
PHANTOM
 62
     8
370
     0
100
AcDbLine
 10
1296.9485454924
 20
1649.8583576814
 30
0.0
 11
1296.9485454924
 21
1644.8583624497
 31
0.0
  0
ARC
  5
314
330
1F
100
AcDbEntity
  8
0
  6
PHANTOM
 62
     8
370
     0
100
AcDbCircle
 10
1296.94853924
 20
1669.8583453866
 30
0.0
 40
25.0
100
AcDbArc
 50
180.0
 51
270.0
  0
ARC
  5
315
330
1F
100
AcDbEntity
  8
0
  6
PHANTOM
 62
     8
370
     0
100
AcDbCircle
 10
1606.94853924
 20
1669.8583453866
 30
0.0
 40
25.0
100
AcDbArc
 50
270.0
 51
0.0
  0
LINE
  5
316
330
1F
100
AcDbEntity
  8
0
  6
PHANTOM
 62
     8
370
     0
100
AcDbLine
 10
1606.9485180742
 20
1649.8583576814
 30
0.0
 11
1606.9485180742
 21
1644.8583624497
 31
0.0
  0
LINE
  5
317
330
1F
100
AcDbEntity
  8
0
  6
PHANTOM
 62
     8
370
     0
100
AcDbLine
 10
1606.9485180742
 20
1644.8583624497
 30
0.0
 11
1296.9485454924
 21
1644.8583624497
 31
0.0
  0
LINE
  5
318
330
1F
100
AcDbEntity
  8
0
  6
PHANTOM
 62
     8
370
     0
100
AcDbLine
 10
941.9485413201
 20
1644.8583624497
 30
0.0
 11
631.9485389359
 21
1644.8583624497
 31
0.0
  0
ARC
  5
319
330
1F
100
AcDbEntity
  8
0
  6
PHANTOM
 62
     8
370
     0
100
AcDbCircle
 10
1894.44853924
 20
1259.8583453866
 30
0.0
 40
15.00000000000023
100
AcDbArc
 50
270.0
 51
0.0
  0
LINE
  5
31A
330
1F
100
AcDbEntity
  8
0
  6
PHANTOM
 62
     8
370
     0
100
AcDbLine
 10
1894.4484823115
 20
1244.8583564893
 30
0.0
 11
1894.4484823115
 21
1239.8583314553
 31
0.0
  0
ARC
  5
31B
330
1F
100
AcDbEntity
  8
0
  6
PHANTOM
 62
     8
370
     0
100
AcDbCircle
 10
344.44853924
 20
1259.8583453866
 30
0.0
 40
15.00000000000023
100
AcDbArc
 50
180.0
 51
270.0
  0
LINE
  5
31C
330
1F
100
AcDbEntity
  8
0
  6
PHANTOM
 62
     8
370
     0
100
AcDbLine
 10
344.4485299952
 20
1244.8583564893
 30
0.0
 11
344.4485299952
 21
1239.8583314553
 31
0.0
  0
LINE
  5
31D
330
1F
100
AcDbEntity
  8
0
  6
PHANTOM
 62
     8
370
     0
100
AcDbLine
 10
344.4485299952
 20
1244.8583564893
 30
0.0
 11
1894.4484823115
 21
1244.8583564893
 31
0.0
  0
ARC
  5
31E
330
1F
100
AcDbEntity
  8
0
  6
PHANTOM
 62
     8
370
     0
100
AcDbCircle
 10
879.3712812277
 20
1444.8583453866
 30
0.0
 40
141.6828963452581
100
AcDbArc
 50
308.5460066902
 51
51.4539933098
  0
ARC
  5
31F
330
1F
100
AcDbEntity
  8
0
  6
PHANTOM
 62
     8
370
     0
100
AcDbCircle
 10
786.94853924
 20
1328.8583453866
 30
0.0
 40
290.0
100
AcDbArc
 50
51.4539933098
 51
128.5460066902
  0
ARC
  5
320
330
1F
100
AcDbEntity
  8
0
  6
PHANTOM
 62
     8
370
     0
100
AcDbCircle
 10
694.5257972523
 20
1444.8583453866
 30
0.0
 40
141.6828963452581
100
AcDbArc
 50
128.5460066902
 51
231.4539933098
  0
ARC
  5
321
330
1F
100
AcDbEntity
  8
0
  6
PHANTOM
 62
     8
370
     0
100
AcDbCircle
 10
786.94853924
 20
1560.8583453866
 30
0.0
 40
290.0000000000001
100
AcDbArc
 50
231.4539933098
 51
308.5460066902
  0
ARC
  5
322
330
1F
100
AcDbEntity
  8
0
  6
PHANTOM
 62
     8
370
     0
100
AcDbCircle
 10
1544.3712812277
 20
1444.8583453866
 30
0.0
 40
141.6828963452581
100
AcDbArc
 50
308.5460066902
 51
51.4539933098
  0
ARC
  5
323
330
1F
100
AcDbEntity
  8
0
  6
PHANTOM
 62
     8
370
     0
100
AcDbCircle
 10
1451.94853924
 20
1328.8583453866
 30
0.0
 40
290.0000000000002
100
AcDbArc
 50
51.4539933098
 51
128.5460066902
  0
ARC
  5
324
330
1F
100
AcDbEntity
  8
0
  6
PHANTOM
 62
     8
370
     0
100
AcDbCircle
 10
1359.5257972523
 20
1444.8583453866
 30
0.0
 40
141.6828963452579
100
AcDbArc
 50
128.5460066902
 51
231.4539933098
  0
ARC
  5
325
330
1F
100
AcDbEntity
  8
0
  6
PHANTOM
 62
     8
370
     0
100
AcDbCircle
 10
1451.94853924
 20
1560.8583453866
 30
0.0
 40
290.0000000000002
100
AcDbArc
 50
231.4539933098
 51
308.5460066902
  0
LWPOLYLINE
  5
326
330
1F
100
AcDbEntity
  8
0
  6
PHANTOM
 62
     8
370
     0
100
AcDbPolyline
 90
       11
 70
   128
 43
0.0
 10
615.5842625267
 20
1543.9380428926
 10
615.4691808588
 20
1544.0824649468
 10
615.1267819769
 20
1544.5122144357
 10
614.5654850371
 20
1545.2167413369
 10
613.7991183169
 20
1546.1785814897
 10
612.8465466864
 20
1547.3741910592
 10
611.7312245733
 20
1548.7740061418
 10
610.480629719
 20
1550.3436348573
 10
609.1255330212
 20
1552.0443937913
 10
607.6993279822
 20
1553.8344404832
 10
606.2371068365
 20
1555.6696674958
  0
LWPOLYLINE
  5
327
330
1F
100
AcDbEntity
  8
0
  6
PHANTOM
 62
     8
370
     0
100
AcDbPolyline
 90
       11
 70
   128
 43
0.0
 10
958.3128177292
 20
1543.9380428926
 10
958.4278993971
 20
1544.0824649468
 10
958.770298279
 20
1544.5122144357
 10
959.3315952189
 20
1545.2167413369
 10
960.0979619391
 20
1546.1785814897
 10
961.0505335695
 20
1547.3741910592
 10
962.1658556826
 20
1548.7740061418
 10
963.4164505369
 20
1550.3436348573
 10
964.7715323336
 20
1552.0443937913
 10
966.1977522738
 20
1553.8344404832
 10
967.6599585182
 20
1555.6696674958
  0
LWPOLYLINE
  5
328
330
1F
100
AcDbEntity
  8
0
  6
PHANTOM
 62
     8
370
     0
100
AcDbPolyline
 90
       11
 70
   128
 43
0.0
 10
1280.5842690832
 20
1543.9380428926
 10
1280.4691725142
 20
1544.0824649468
 10
1280.1267736323
 20
1544.5122144357
 10
1279.5654766924
 20
1545.2167413369
 10
1278.7991099722
 20
1546.1785814897
 10
1277.8465383417
 20
1547.3741910592
 10
1276.7312162287
 20
1548.7740061418
 10
1275.4806213743
 20
1550.3436348573
 10
1274.1255395777
 20
1552.0443937913
 10
1272.6993196375
 20
1553.8344404832
 10
1271.2371282942
 20
1555.6696674958
  0
LWPOLYLINE
  5
329
330
1F
100
AcDbEntity
  8
0
  6
PHANTOM
 62
     8
370
     0
100
AcDbPolyline
 90
       11
 70
   128
 43
0.0
 10
1623.3127944834
 20
1543.9380428926
 10
1623.4278910525
 20
1544.0824649468
 10
1623.7703197367
 20
1544.5122144357
 10
1624.3316166765
 20
1545.2167413369
 10
1625.0979535944
 20
1546.1785814897
 10
1626.0505550272
 20
1547.3741910592
 10
1627.1658771403
 20
1548.7740061418
 10
1628.4164421923
 20
1550.3436348573
 10
1629.7715537913
 20
1552.0443937913
 10
1631.1977737314
 20
1553.8344404832
 10
1632.6599352724
 20
1555.6696674958
  0
LWPOLYLINE
  5
32A
330
1F
100
AcDbEntity
  8
0
  6
PHANTOM
 62
     8
370
     0
100
AcDbPolyline
 90
       11
 70
   128
 43
0.0
 10
967.6599585182
 20
1334.0470216409
 10
966.1977522738
 20
1335.8822486535
 10
964.7715323336
 20
1337.6722953454
 10
963.4164505369
 20
1339.3730542794
 10
962.1658556826
 20
1340.9426829949
 10
961.0505335695
 20
1342.3424980775
 10
960.0979619391
 20
1343.538107647
 10
959.3315952189
 20
1344.4999477998
 10
958.770298279
 20
1345.204474701
 10
958.4278993971
 20
1345.6342241899
 10
958.3128177292
 20
1345.7786462441
  0
LWPOLYLINE
  5
32B
330
1F
100
AcDbEntity
  8
0
  6
PHANTOM
 62
     8
370
     0
100
AcDbPolyline
 90
       11
 70
   128
 43
0.0
 10
1271.2371282942
 20
1334.0470216409
 10
1272.6993196375
 20
1335.8822486535
 10
1274.1255395777
 20
1337.6722953454
 10
1275.4806213743
 20
1339.3730542794
 10
1276.7312162287
 20
1340.9426829949
 10
1277.8465383417
 20
1342.3424980775
 10
1278.7991099722
 20
1343.538107647
 10
1279.5654766924
 20
1344.4999477998
 10
1280.1267736323
 20
1345.204474701
 10
1280.4691725142
 20
1345.6342241899
 10
1280.5842690832
 20
1345.7786462441
  0
LWPOLYLINE
  5
32C
330
1F
100
AcDbEntity
  8
0
  6
PHANTOM
 62
     8
370
     0
100
AcDbPolyline
 90
       11
 70
   128
 43
0.0
 10
606.2371068365
 20
1334.0470216409
 10
607.6993279822
 20
1335.8822486535
 10
609.1255330212
 20
1337.6722953454
 10
610.480629719
 20
1339.3730542794
 10
611.7312245733
 20
1340.9426829949
 10
612.8465466864
 20
1342.3424980775
 10
613.7991183169
 20
1343.538107647
 10
614.5654850371
 20
1344.4999477998
 10
615.1267819769
 20
1345.204474701
 10
615.4691808588
 20
1345.6342241899
 10
615.5842625267
 20
1345.7786462441
  0
LWPOLYLINE
  5
32D
330
1F
100
AcDbEntity
  8
0
  6
PHANTOM
 62
     8
370
     0
100
AcDbPolyline
 90
       11
 70
   128
 43
0.0
 10
1632.6599352724
 20
1334.0470216409
 10
1631.1977737314
 20
1335.8822486535
 10
1629.7715537913
 20
1337.6722953454
 10
1628.4164421923
 20
1339.3730542794
 10
1627.1658771403
 20
1340.9426829949
 10
1626.0505550272
 20
1342.3424980775
 10
1625.0979535944
 20
1343.538107647
 10
1624.3316166765
 20
1344.4999477998
 10
1623.7703197367
 20
1345.204474701
 10
1623.4278910525
 20
1345.6342241899
 10
1623.3127944834
 20
1345.7786462441
  0
LINE
  5
32E
330
1F
100
AcDbEntity
  8
0
  6
PHANTOM
 62
     8
370
     0
100
AcDbLine
 10
1969.4485299952
 20
1224.8583457604
 30
0.0
 11
1957.4485652811
 21
1224.8583457604
 31
0.0
  0
LINE
  5
32F
330
1F
100
AcDbEntity
  8
0
  6
PHANTOM
 62
     8
370
     0
100
AcDbLine
 10
1957.4485652811
 20
1224.8583457604
 30
0.0
 11
1957.4485652811
 21
1229.8583409921
 31
0.0
  0
LINE
  5
330
330
1F
100
AcDbEntity
  8
0
  6
PHANTOM
 62
     8
370
     0
100
AcDbLine
 10
281.4485662348
 20
1229.8583409921
 30
0.0
 11
281.4485662348
 21
1224.8583457604
 31
0.0
  0
LINE
  5
331
330
1F
100
AcDbEntity
  8
0
  6
PHANTOM
 62
     8
370
     0
100
AcDbLine
 10
281.4485662348
 20
1224.8583457604
 30
0.0
 11
269.4485419161
 21
1224.8583457604
 31
0.0
  0
LINE
  5
332
330
1F
100
AcDbEntity
  8
0
  6
PHANTOM
 62
     8
370
     0
100
AcDbLine
 10
309.4485633738
 20
1196.8583486215
 30
0.0
 11
314.4485586054
 21
1196.8583486215
 31
0.0
  0
ARC
  5
333
330
1F
100
AcDbEntity
  8
0
  6
PHANTOM
 62
     8
370
     0
100
AcDbCircle
 10
309.44853924
 20
1224.8583453866
 30
0.0
 40
28.00000000000006
100
AcDbArc
 50
180.0
 51
270.0
  0
LINE
  5
334
330
1F
100
AcDbEntity
  8
0
  6
PHANTOM
 62
     8
370
     0
100
AcDbLine
 10
1924.4485729105
 20
1196.8583486215
 30
0.0
 11
1929.4485681421
 21
1196.8583486215
 31
0.0
  0
ARC
  5
335
330
1F
100
AcDbEntity
  8
0
  6
PHANTOM
 62
     8
370
     0
100
AcDbCircle
 10
1929.44853924
 20
1224.8583453866
 30
0.0
 40
28.0
100
AcDbArc
 50
270.0
 51
0.0
  0
LINE
  5
336
330
1F
100
AcDbEntity
  8
0
  6
PHANTOM
 62
     8
370
     0
100
AcDbLine
 10
309.4485633738
 20
1184.8583541051
 30
0.0
 11
309.4485633738
 21
1196.8583486215
 31
0.0
  0
LINE
  5
337
330
1F
100
AcDbEntity
  8
0
  6
PHANTOM
 62
     8
370
     0
100
AcDbLine
 10
1929.4485681421
 20
1184.8583541051
 30
0.0
 11
1929.4485681421
 21
1196.8583486215
 31
0.0
  0
MTEXT
  5
339
330
1F
100
AcDbEntity
  8
FORMAT
100
AcDbMText
 10
1009.2776506667
 20
1912.1917364535
 30
0.0
 40
19.05
 41
0.0
 71
     1
 72
     1
  1
LB 6434 - EDWARDIAN TWIN BATHROOM CONSOLE, INCLUDING LB 7220 UNDER-MOUNT BASIN
  7
SLDTEXTSTYLE0
 73
     1
 44
1.0
  0
SPLINE
  5
33A
330
1F
100
AcDbEntity
  8
0
  6
Continuous
 62
     7
370
    40
100
AcDbSpline
210
0.0
220
0.0
230
1.0
 70
     8
 71
     3
 72
    15
 73
    11
 74
     0
 42
0.000000001
 43
0.00000001
 40
0.0
 40
0.0
 40
0.0
 40
0.0
 40
0.1368700797830164
 40
0.2743257055508814
 40
0.4112394288226171
 40
0.5476200654012523
 40
0.683470720990965
 40
0.8187927452288198
 40
0.9535866801614399
 40
0.9999999999999999
 40
0.9999999999999999
 40
0.9999999999999999
 40
0.9999999999999999
 10
2455.750381404707
 20
787.4887906997643
 30
0.0
 10
2458.064341315996
 20
787.9519571117938
 30
0.0
 10
2462.702160525915
 20
788.8802714151745
 30
0.0
 10
2469.567305354495
 20
790.6628132419075
 30
0.0
 10
2476.343827742025
 20
792.722614543202
 30
0.0
 10
2482.994585607176
 20
795.0777025471554
 30
0.0
 10
2489.513007101275
 20
797.7062904760975
 30
0.0
 10
2495.874601199171
 20
800.6251136411771
 30
0.0
 10
2500.760792445564
 20
803.0626232622496
 30
0.0
 10
2503.472116671887
 20
804.6144539719907
 30
0.0
 10
2504.166578704664
 20
805.011930414959
 30
0.0
  0
SPLINE
  5
33B
330
1F
100
AcDbEntity
  8
0
  6
Continuous
 62
     7
370
    40
100
AcDbSpline
210
0.0
220
0.0
230
1.0
 70
     8
 71
     3
 72
    13
 73
     9
 74
     0
 42
0.000000001
 43
0.00000001
 40
0.0
 40
0.0
 40
0.0
 40
0.0
 40
0.2198198042213908
 40
0.4337878042388531
 40
0.6201693250813805
 40
0.7819024382002
 40
0.9185800527593505
 40
1.0
 40
1.0
 40
1.0
 40
1.0
 10
2453.467642719099
 20
785.0365364044152
 30
0.0
 10
2453.52472289721
 20
785.2916656056639
 30
0.0
 10
2453.637363726895
 20
785.7951322355194
 30
0.0
 10
2454.044650296165
 20
786.4198210237853
 30
0.0
 10
2454.518223049256
 20
786.8902393295439
 30
0.0
 10
2455.004215001337
 20
787.1989465642565
 30
0.0
 10
2455.418611603775
 20
787.3780156035779
 30
0.0
 10
2455.669872713283
 20
787.4358268295698
 30
0.0
 10
2455.763673240492
 20
787.4574088542901
 30
0.0
  0
LINE
  5
33C
330
1F
100
AcDbEntity
  8
0
  6
Continuous
 62
     7
370
    40
100
AcDbLine
 10
2392.8635472601
 20
764.169173786
 30
0.0
 11
2394.0234536474
 21
757.5909816711
 31
0.0
  0
LINE
  5
33D
330
1F
100
AcDbEntity
  8
0
  6
Continuous
 62
     7
370
    40
100
AcDbLine
 10
2448.6127847975
 20
757.5909816711
 30
0.0
 11
2453.4538144415
 21
785.045834729
 31
0.0
  0
ARC
  5
33E
330
1F
100
AcDbEntity
  8
0
  6
Continuous
 62
     7
370
    40
100
AcDbCircle
 10
2445.6583731509
 20
758.1119237631
 30
0.0
 40
3.000000000000114
100
AcDbArc
 50
270.0
 51
350.0
  0
ARC
  5
33F
330
1F
100
AcDbEntity
  8
0
  6
Continuous
 62
     7
370
    40
100
AcDbCircle
 10
2396.9778977033
 20
758.1119237631
 30
0.0
 40
3.000000000000114
100
AcDbArc
 50
190.0
 51
270.0
  0
SPLINE
  5
340
330
1F
100
AcDbEntity
  8
0
  6
Continuous
 62
     7
370
    40
100
AcDbSpline
210
0.0
220
0.0
230
1.0
 70
     8
 71
     3
 72
    17
 73
    13
 74
     0
 42
0.000000001
 43
0.00000001
 40
0.0
 40
0.0
 40
0.0
 40
0.0
 40
0.0029729411628368
 40
0.0061567435036918
 40
0.0111364153765202
 40
0.0327812979750751
 40
0.1160102392165382
 40
0.2165239374197495
 40
0.4687468286631055
 40
0.6578284426335231
 40
0.8697277015204125
 40
1.0
 40
1.0
 40
1.0
 40
1.0
 10
2390.38888161833
 20
766.636344143673
 30
0.0
 10
2390.389984200071
 20
766.6361676651694
 30
0.0
 10
2390.392267566137
 20
766.6358021911082
 30
0.0
 10
2390.402179995075
 20
766.6341619937845
 30
0.0
 10
2390.436880216297
 20
766.6282304541737
 30
0.0
 10
2390.57318138766
 20
766.6027753733683
 30
0.0
 10
2390.8195799688
 20
766.5394998790741
 30
0.0
 10
2391.328105561295
 20
766.3455226825536
 30
0.0
 10
2391.902952696187
 20
765.9665434365374
 30
0.0
 10
2392.429115390769
 20
765.3433781529026
 30
0.0
 10
2392.753314641993
 20
764.748801529113
 30
0.0
 10
2392.809451690935
 20
764.3244899330147
 30
0.0
 10
2392.830824310133
 20
764.1629451005898
 30
0.0
  0
ARC
  5
341
330
1F
100
AcDbEntity
  8
0
  6
Continuous
 62
     7
370
    40
100
AcDbCircle
 10
2246.1555924604
 20
800.8519237631
 30
0.0
 40
4.260000000000218
100
AcDbArc
 50
0.0
 51
52.1776591166
  0
ARC
  5
342
330
1F
100
AcDbEntity
  8
0
  6
Continuous
 62
     7
370
    40
100
AcDbCircle
 10
2192.1955924604
 20
800.8519237631
 30
0.0
 40
4.260000000000008
100
AcDbArc
 50
127.8223408834
 51
180.0
  0
ARC
  5
343
330
1F
100
AcDbEntity
  8
0
  6
Continuous
 62
     7
370
    40
100
AcDbCircle
 10
2245.4455924604
 20
800.8519237631
 30
0.0
 40
4.970000000000255
100
AcDbArc
 50
311.8103148958
 51
0.0
  0
ARC
  5
344
330
1F
100
AcDbEntity
  8
0
  6
Continuous
 62
     7
370
    40
100
AcDbCircle
 10
2192.9055924604
 20
800.8519237631
 30
0.0
 40
4.9699999999998
100
AcDbArc
 50
180.0
 51
228.1896851042
  0
ARC
  5
345
330
1F
100
AcDbEntity
  8
0
  6
Continuous
 62
     7
370
    40
100
AcDbCircle
 10
2189.2766885566
 20
804.6119237631
 30
0.0
 40
0.5
100
AcDbArc
 50
307.8223408834
 51
90.0
  0
ARC
  5
346
330
1F
100
AcDbEntity
  8
0
  6
Continuous
 62
     7
370
    40
100
AcDbCircle
 10
2249.0744963643
 20
804.6119237631
 30
0.0
 40
0.5
100
AcDbArc
 50
90.0
 51
232.1776591166
  0
ARC
  5
347
330
1F
100
AcDbEntity
  8
0
  6
Continuous
 62
     7
370
    40
100
AcDbCircle
 10
2266.7455924604
 20
777.0377998027
 30
0.0
 40
26.98000000000008
100
AcDbArc
 50
131.8103148958
 51
180.0
  0
ARC
  5
348
330
1F
100
AcDbEntity
  8
0
  6
Continuous
 62
     7
370
    40
100
AcDbCircle
 10
2171.6055924604
 20
777.0377998027
 30
0.0
 40
26.98000000000008
100
AcDbArc
 50
0.0
 51
48.1896851042
  0
ARC
  5
349
330
1F
100
AcDbEntity
  8
0
  6
Continuous
 62
     7
370
    40
100
AcDbCircle
 10
2241.3533615707
 20
757.8969237631
 30
0.0
 40
3.905000000000016
100
AcDbArc
 50
270.0
 51
22.3835237867
  0
ARC
  5
34A
330
1F
100
AcDbEntity
  8
0
  6
Continuous
 62
     7
370
    40
100
AcDbCircle
 10
2196.9978233502
 20
757.8969237631
 30
0.0
 40
3.904999999999973
100
AcDbArc
 50
157.6164762133
 51
270.0
  0
ARC
  5
34B
330
1F
100
AcDbEntity
  8
0
  6
Continuous
 62
     7
370
    40
100
AcDbCircle
 10
2199.2955924604
 20
756.9506245948
 30
0.0
 40
6.390000000000174
100
AcDbArc
 50
146.796900802
 51
157.6164762133
  0
ARC
  5
34C
330
1F
100
AcDbEntity
  8
0
  6
Continuous
 62
     7
370
    40
100
AcDbCircle
 10
2239.0555924604
 20
756.9506245948
 30
0.0
 40
6.389999999999999
100
AcDbArc
 50
22.3835237867
 51
33.203099198
  0
ARC
  5
34D
330
1F
100
AcDbEntity
  8
0
  6
Continuous
 62
     7
370
    40
100
AcDbCircle
 10
2240.1755924604
 20
745.2349423774
 30
0.0
 40
4.500000000000114
100
AcDbArc
 50
270.0
 51
0.0
  0
ARC
  5
34E
330
1F
100
AcDbEntity
  8
0
  6
Continuous
 62
     7
370
    40
100
AcDbCircle
 10
2198.1755924604
 20
745.2349423774
 30
0.0
 40
4.500000000000114
100
AcDbArc
 50
180.0
 51
270.0
  0
ARC
  5
34F
330
1F
100
AcDbEntity
  8
0
  6
Continuous
 62
     7
370
    40
100
AcDbCircle
 10
2240.1755924604
 20
745.2349423774
 30
0.0
 40
4.500000000000589
100
AcDbArc
 50
0.0
 51
86.1924001848
  0
ARC
  5
350
330
1F
100
AcDbEntity
  8
0
  6
Continuous
 62
     7
370
    40
100
AcDbCircle
 10
2198.1755924604
 20
745.2349423774
 30
0.0
 40
4.500000000000619
100
AcDbArc
 50
93.8075998152
 51
180.0
  0
ARC
  5
351
330
1F
100
AcDbEntity
  8
0
  6
Continuous
 62
     7
370
    40
100
AcDbCircle
 10
2268.1655924604
 20
776.0019237631
 30
0.0
 40
28.40000000000032
100
AcDbArc
 50
180.0
 51
213.203099198
  0
ARC
  5
352
330
1F
100
AcDbEntity
  8
0
  6
Continuous
 62
     7
370
    40
100
AcDbCircle
 10
2170.1855924604
 20
776.0019237631
 30
0.0
 40
28.39999999999994
100
AcDbArc
 50
326.796900802
 51
0.0
  0
ARC
  5
353
330
1F
100
AcDbEntity
  8
0
  6
Continuous
 62
     7
370
    40
100
AcDbCircle
 10
2240.6005924604
 20
752.0919237631
 30
0.0
 40
1.900000000000091
100
AcDbArc
 50
90.0
 51
180.0
  0
ARC
  5
354
330
1F
100
AcDbEntity
  8
0
  6
Continuous
 62
     7
370
    40
100
AcDbCircle
 10
2197.7505924604
 20
752.0919237631
 30
0.0
 40
1.900000000000091
100
AcDbArc
 50
0.0
 51
90.0
  0
ARC
  5
355
330
1F
100
AcDbEntity
  8
0
  6
Continuous
 62
     7
370
    40
100
AcDbCircle
 10
2197.7505924604
 20
751.6208154579
 30
0.0
 40
1.900000000000091
100
AcDbArc
 50
273.8075998157
 51
0.0
  0
ARC
  5
356
330
1F
100
AcDbEntity
  8
0
  6
Continuous
 62
     7
370
    40
100
AcDbCircle
 10
2240.6005924604
 20
751.6208154579
 30
0.0
 40
1.900000000000091
100
AcDbArc
 50
180.0
 51
266.1924001843
  0
LINE
  5
357
330
1F
100
AcDbEntity
  8
0
  6
Continuous
 62
     7
370
    40
100
AcDbLine
 10
2198.1755847281
 20
740.7349371403
 30
0.0
 11
2202.9100710695
 21
198.217468807
 31
0.0
  0
LINE
  5
358
330
1F
100
AcDbEntity
  8
0
  6
Continuous
 62
     7
370
    40
100
AcDbLine
 10
2235.4411238974
 20
198.217468807
 30
0.0
 11
2240.1755804365
 21
740.7349371403
 31
0.0
  0
LINE
  5
359
330
1F
100
AcDbEntity
  8
0
  6
Continuous
 62
     7
370
    40
100
AcDbLine
 10
2198.5856050795
 20
777.0378016918
 30
0.0
 11
2198.5856050795
 21
776.0019176691
 31
0.0
  0
LINE
  5
35A
330
1F
100
AcDbEntity
  8
0
  6
Continuous
 62
     7
370
    40
100
AcDbLine
 10
2239.7655898874
 20
776.0019176691
 30
0.0
 11
2239.7655898874
 21
777.0378016918
 31
0.0
  0
LINE
  5
35B
330
1F
100
AcDbEntity
  8
0
  6
Continuous
 62
     7
370
    40
100
AcDbLine
 10
2199.65059107
 20
752.0919167488
 30
0.0
 11
2199.65059107
 21
751.6208165377
 31
0.0
  0
LINE
  5
35C
330
1F
100
AcDbEntity
  8
0
  6
Continuous
 62
     7
370
    40
100
AcDbLine
 10
2238.7006038969
 20
751.6208165377
 30
0.0
 11
2238.7006038969
 21
752.0919167488
 31
0.0
  0
LINE
  5
35D
330
1F
100
AcDbEntity
  8
0
  6
Continuous
 62
     7
370
    40
100
AcDbLine
 10
2201.1756057089
 20
181.0698085516
 30
0.0
 11
2201.1756057089
 21
180.7349496572
 31
0.0
  0
LINE
  5
35E
330
1F
100
AcDbEntity
  8
0
  6
Continuous
 62
     7
370
    40
100
AcDbLine
 10
2237.175589258
 20
180.7349496572
 30
0.0
 11
2237.175589258
 21
181.0698085516
 31
0.0
  0
ARC
  5
35F
330
1F
100
AcDbEntity
  8
0
  6
Continuous
 62
     7
370
    40
100
AcDbCircle
 10
2233.6755924604
 20
180.7349423774
 30
0.0
 40
3.5
100
AcDbArc
 50
270.0
 51
0.0
  0
ARC
  5
360
330
1F
100
AcDbEntity
  8
0
  6
Continuous
 62
     7
370
    40
100
AcDbCircle
 10
2204.6755924604
 20
180.7349423774
 30
0.0
 40
3.5
100
AcDbArc
 50
180.0
 51
270.0
  0
ARC
  5
361
330
1F
100
AcDbEntity
  8
0
  6
Continuous
 62
     7
370
    40
100
AcDbCircle
 10
2204.6755924604
 20
181.0697909875
 30
0.0
 40
3.5
100
AcDbArc
 50
105.2575232905
 51
180.0
  0
ARC
  5
362
330
1F
100
AcDbEntity
  8
0
  6
Continuous
 62
     7
370
    40
100
AcDbCircle
 10
2233.6755924604
 20
181.0697909875
 30
0.0
 40
3.5
100
AcDbArc
 50
0.0
 51
74.7424767095
  0
ARC
  5
363
330
1F
100
AcDbEntity
  8
0
  6
Continuous
 62
     7
370
    40
100
AcDbCircle
 10
2233.4411905272
 20
198.2349423774
 30
0.0
 40
2.000000000000353
100
AcDbArc
 50
289.9865925295
 51
359.5
  0
ARC
  5
364
330
1F
100
AcDbEntity
  8
0
  6
Continuous
 62
     7
370
    40
100
AcDbCircle
 10
2204.9099943937
 20
198.2349423774
 30
0.0
 40
2.000000000000068
100
AcDbArc
 50
180.5
 51
250.0134074705
  0
ARC
  5
365
330
1F
100
AcDbEntity
  8
0
  6
Continuous
 62
     7
370
    40
100
AcDbCircle
 10
2236.1755924604
 20
190.2349423774
 30
0.0
 40
6.000000000000455
100
AcDbArc
 50
180.0
 51
254.7424767095
  0
ARC
  5
366
330
1F
100
AcDbEntity
  8
0
  6
Continuous
 62
     7
370
    40
100
AcDbCircle
 10
2202.1755924604
 20
190.2349423774
 30
0.0
 40
6.000000000000455
100
AcDbArc
 50
285.2575232905
 51
0.0
  0
ARC
  5
367
330
1F
100
AcDbEntity
  8
0
  6
Continuous
 62
     7
370
    40
100
AcDbCircle
 10
2236.1755924604
 20
190.7167613429
 30
0.0
 40
6.000000000000455
100
AcDbArc
 50
109.9865925295
 51
180.0
  0
ARC
  5
368
330
1F
100
AcDbEntity
  8
0
  6
Continuous
 62
     7
370
    40
100
AcDbCircle
 10
2202.1755924604
 20
190.7167613429
 30
0.0
 40
6.000000000000455
100
AcDbArc
 50
0.0
 51
70.0134074705
  0
ARC
  5
369
330
1F
100
AcDbEntity
  8
0
  6
Continuous
 62
     7
370
    40
100
AcDbCircle
 10
2233.6500747438
 20
176.7349423774
 30
0.0
 40
0.4999999999999432
100
AcDbArc
 50
90.0
 51
177.0
  0
ARC
  5
36A
330
1F
100
AcDbEntity
  8
0
  6
Continuous
 62
     7
370
    40
100
AcDbCircle
 10
2204.7011101771
 20
176.7349423774
 30
0.0
 40
0.4999999999999432
100
AcDbArc
 50
3.0
 51
90.0
  0
LINE
  5
36B
330
1F
100
AcDbEntity
  8
0
  6
Continuous
 62
     7
370
    40
100
AcDbLine
 10
2205.2004391497
 20
176.7611079901
 30
0.0
 11
2208.4800357168
 21
114.1826086729
 31
0.0
  0
LINE
  5
36C
330
1F
100
AcDbEntity
  8
0
  6
Continuous
 62
     7
370
    40
100
AcDbLine
 10
2229.8711592501
 20
114.1826086729
 30
0.0
 11
2233.1507558172
 21
176.7611079901
 31
0.0
  0
LINE
  5
36D
330
1F
100
AcDbEntity
  8
0
  6
Continuous
 62
     7
370
    40
100
AcDbLine
 10
2208.1756049937
 20
190.7167607038
 30
0.0
 11
2208.1756049937
 21
190.2349167555
 31
0.0
  0
LINE
  5
36E
330
1F
100
AcDbEntity
  8
0
  6
Continuous
 62
     7
370
    40
100
AcDbLine
 10
2230.1755899733
 20
190.2349167555
 30
0.0
 11
2230.1755899733
 21
190.7167607038
 31
0.0
  0
ARC
  5
36F
330
1F
100
AcDbEntity
  8
0
  6
Continuous
 62
     7
370
    40
100
AcDbCircle
 10
2228.8725300196
 20
114.2349423774
 30
0.0
 40
1.0
100
AcDbArc
 50
270.0
 51
357.0
  0
ARC
  5
370
330
1F
100
AcDbEntity
  8
0
  6
Continuous
 62
     7
370
    40
100
AcDbCircle
 10
2209.4786549013
 20
114.2349423774
 30
0.0
 40
1.000000000000283
100
AcDbArc
 50
183.0
 51
270.0
  0
LINE
  5
371
330
1F
100
AcDbEntity
  8
0
  6
Continuous
 62
     7
370
    40
100
AcDbLine
 10
2251.3755912131
 20
810.2119290321
 30
0.0
 11
2251.1755878275
 21
810.2119290321
 31
0.0
  0
LINE
  5
372
330
1F
100
AcDbEntity
  8
0
  6
Continuous
 62
     7
370
    40
100
AcDbLine
 10
2691.9755691832
 20
806.2119209259
 30
0.0
 11
2691.9755691832
 21
806.0119175404
 31
0.0
  0
LINE
  5
373
330
1F
100
AcDbEntity
  8
0
  6
Continuous
 62
     7
370
    40
100
AcDbLine
 10
2251.3755912131
 20
810.2119290321
 30
0.0
 11
2251.3755912131
 21
806.0119175404
 31
0.0
  0
LINE
  5
374
330
1F
100
AcDbEntity
  8
0
  6
Continuous
 62
     7
370
    40
100
AcDbLine
 10
2691.9755691832
 20
805.011930415
 30
0.0
 11
2251.3755912131
 21
805.011930415
 31
0.0
  0
LINE
  5
375
330
1F
100
AcDbEntity
  8
0
  6
Continuous
 62
     7
370
    40
100
AcDbLine
 10
2251.3755912131
 20
805.011930415
 30
0.0
 11
2251.3755912131
 21
806.0119175404
 31
0.0
  0
LINE
  5
376
330
1F
100
AcDbEntity
  8
0
  6
Continuous
 62
     7
370
    40
100
AcDbLine
 10
2691.9755691832
 20
806.0119175404
 30
0.0
 11
2691.9755691832
 21
805.011930415
 31
0.0
  0
LINE
  5
377
330
1F
100
AcDbEntity
  8
0
  6
Continuous
 62
     7
370
    40
100
AcDbLine
 10
2279.1755849665
 20
833.0119275539
 30
0.0
 11
2663.1756181067
 21
833.0119275539
 31
0.0
  0
ARC
  5
378
330
1F
100
AcDbEntity
  8
0
  6
Continuous
 62
     7
370
    40
100
AcDbCircle
 10
2663.1755924604
 20
941.1119237631
 30
0.0
 40
1.0
100
AcDbArc
 50
0.0
 51
90.0
  0
ARC
  5
379
330
1F
100
AcDbEntity
  8
0
  6
Continuous
 62
     7
370
    40
100
AcDbCircle
 10
2663.1755924604
 20
834.0119237631
 30
0.0
 40
1.0
100
AcDbArc
 50
270.0
 51
0.0
  0
LINE
  5
37A
330
1F
100
AcDbEntity
  8
0
  6
Continuous
 62
     7
370
    40
100
AcDbLine
 10
2664.1756052321
 20
834.0119295805
 30
0.0
 11
2664.1756052321
 21
941.1119245975
 31
0.0
  0
LINE
  5
37B
330
1F
100
AcDbEntity
  8
0
  6
Continuous
 62
     7
370
    40
100
AcDbLine
 10
2663.1756181067
 20
942.1119228988
 30
0.0
 11
2279.1755849665
 21
942.1119228988
 31
0.0
  0
ARC
  5
37C
330
1F
100
AcDbEntity
  8
0
  6
Continuous
 62
     7
370
    40
100
AcDbCircle
 10
2279.1755924604
 20
834.0119237631
 30
0.0
 40
1.0
100
AcDbArc
 50
180.0
 51
270.0
  0
ARC
  5
37D
330
1F
100
AcDbEntity
  8
0
  6
Continuous
 62
     7
370
    40
100
AcDbCircle
 10
2279.1755924604
 20
941.1119237631
 30
0.0
 40
1.0
100
AcDbArc
 50
90.0
 51
180.0
  0
LINE
  5
37E
330
1F
100
AcDbEntity
  8
0
  6
Continuous
 62
     7
370
    40
100
AcDbLine
 10
2278.1755978411
 20
941.1119245975
 30
0.0
 11
2278.1755978411
 21
834.0119295805
 31
0.0
  0
LINE
  5
37F
330
1F
100
AcDbEntity
  8
0
  6
Continuous
 62
     7
370
    40
100
AcDbLine
 10
2421.3181490248
 20
787.111925432
 30
0.0
 11
2420.1663488692
 21
787.111925432
 31
0.0
  0
SPLINE
  5
380
330
1F
100
AcDbEntity
  8
0
  6
Continuous
 62
     7
370
    40
100
AcDbSpline
210
0.0
220
0.0
230
1.0
 70
     8
 71
     3
 72
     9
 73
     5
 74
     0
 42
0.000000001
 43
0.00000001
 40
0.0
 40
0.0
 40
0.0
 40
0.0
 40
0.4970035246566943
 40
1.0
 40
1.0
 40
1.0
 40
1.0
 10
2412.68119757826
 20
787.2686260431252
 30
0.0
 10
2413.906146126639
 20
787.223894314192
 30
0.0
 10
2416.370813855555
 20
787.133891473741
 30
0.0
 10
2418.896125841221
 20
787.1192766412443
 30
0.0
 10
2420.166348869154
 20
787.1119254320107
 30
0.0
  0
SPLINE
  5
381
330
1F
100
AcDbEntity
  8
0
  6
Continuous
 62
     7
370
    40
100
AcDbSpline
210
0.0
220
0.0
230
1.0
 70
     8
 71
     3
 72
     9
 73
     5
 74
     0
 42
0.000000001
 43
0.00000001
 40
0.0
 40
0.0
 40
0.0
 40
0.0
 40
0.4969951004586265
 40
1.0
 40
1.0
 40
1.0
 40
1.0
 10
2422.469829971144
 20
787.1119254320107
 30
0.0
 10
2423.724908201381
 20
787.1191073750399
 30
0.0
 10
2426.25024140704
 20
787.1335581070946
 30
0.0
 10
2428.715209462312
 20
787.2234233737161
 30
0.0
 10
2429.955100471327
 20
787.2686260431252
 30
0.0
  0
LINE
  5
382
330
1F
100
AcDbEntity
  8
0
  6
Continuous
 62
     7
370
    40
100
AcDbLine
 10
2422.4698299711
 20
787.111925432
 30
0.0
 11
2421.3181490248
 21
787.111925432
 31
0.0
  0
SPLINE
  5
383
330
1F
100
AcDbEntity
  8
0
  6
Continuous
 62
     7
370
    40
100
AcDbSpline
210
0.0
220
0.0
230
1.0
 70
     8
 71
     3
 72
    13
 73
     9
 74
     0
 42
0.000000001
 43
0.00000001
 40
0.0
 40
0.0
 40
0.0
 40
0.0
 40
0.1675365971099727
 40
0.3356541001807346
 40
0.5037153213723542
 40
0.6711742488308743
 40
0.8389153497170778
 40
1.0
 40
1.0
 40
1.0
 40
1.0
 10
2385.248636657545
 20
767.4330347269021
 30
0.0
 10
2380.242933888616
 20
768.4630710268401
 30
0.0
 10
2370.214171888788
 20
770.5267151104206
 30
0.0
 10
2355.546502319035
 20
775.160411354534
 30
0.0
 10
2341.285508754312
 20
780.8941045884808
 30
0.0
 10
2327.601751639244
 20
787.8715488800252
 30
0.0
 10
2314.705791448463
 20
795.8392936017129
 30
0.0
 10
2306.786670439577
 20
801.9959279196974
 30
0.0
 10
2302.907263690779
 20
805.011930414959
 30
0.0
  0
LINE
  5
384
330
1F
100
AcDbEntity
  8
0
  6
Continuous
 62
     7
370
    40
100
AcDbLine
 10
2445.6583613699
 20
755.1119201868
 30
0.0
 11
2396.977877075
 21
755.1119201868
 31
0.0
  0
ARC
  5
385
330
1F
100
AcDbEntity
  8
0
  6
Continuous
 62
     7
370
    40
100
AcDbCircle
 10
2394.7085705801
 20
786.268387856
 30
0.0
 40
20.00000000000003
100
AcDbArc
 50
263.9817705218
 51
270.6930414479
  0
ARC
  5
386
330
1F
100
AcDbEntity
  8
0
  6
Continuous
 62
     7
370
    40
100
AcDbCircle
 10
2403.096160936
 20
865.8274748795
 30
0.0
 40
100.0
100
AcDbArc
 50
259.7190359747
 51
263.9817705219
  0
LINE
  5
387
330
1F
100
AcDbEntity
  8
0
  6
Continuous
 62
     7
370
    40
100
AcDbLine
 10
2752.1756047552
 20
970.1119237631
 30
0.0
 11
2202.1755928343
 21
970.1119237631
 31
0.0
  0
LINE
  5
388
330
1F
100
AcDbEntity
  8
0
  6
Continuous
 62
     7
370
    40
100
AcDbLine
 10
2752.1756047552
 20
982.1119238674
 30
0.0
 11
2752.1756047552
 21
970.1119237631
 31
0.0
  0
LINE
  5
389
330
1F
100
AcDbEntity
  8
0
  6
Continuous
 62
     7
370
    40
100
AcDbLine
 10
2752.1756047552
 20
995.1119241356
 30
0.0
 11
2752.1756047552
 21
983.1119240313
 31
0.0
  0
LINE
  5
38A
330
1F
100
AcDbEntity
  8
0
  6
Continuous
 62
     7
370
    40
100
AcDbLine
 10
2202.1755928343
 20
995.1119241356
 30
0.0
 11
2207.1755880659
 21
995.1119241356
 31
0.0
  0
LINE
  5
38B
330
1F
100
AcDbEntity
  8
0
  6
Continuous
 62
     7
370
    40
100
AcDbLine
 10
2752.1756047552
 20
995.1119241356
 30
0.0
 11
2207.1755880659
 21
995.1119241356
 31
0.0
  0
LINE
  5
38C
330
1F
100
AcDbEntity
  8
0
  6
Continuous
 62
     7
370
    40
100
AcDbLine
 10
2752.1756047552
 20
983.1119240313
 30
0.0
 11
2752.1756047552
 21
982.1119238674
 31
0.0
  0
LINE
  5
38D
330
1F
100
AcDbEntity
  8
0
  6
Continuous
 62
     7
370
    40
100
AcDbLine
 10
2202.1755928343
 20
970.1119237631
 30
0.0
 11
2174.1755956953
 21
970.1119237631
 31
0.0
  0
ARC
  5
38E
330
1F
100
AcDbEntity
  8
0
  6
Continuous
 62
     7
370
    40
100
AcDbCircle
 10
2174.1755924604
 20
982.1119237631
 30
0.0
 40
12.0
100
AcDbArc
 50
180.0
 51
270.0
  0
ARC
  5
38F
330
1F
100
AcDbEntity
  8
0
  6
Continuous
 62
     7
370
    40
100
AcDbCircle
 10
2174.1755924604
 20
983.1119237631
 30
0.0
 40
12.0
100
AcDbArc
 50
90.0
 51
180.0
  0
LINE
  5
390
330
1F
100
AcDbEntity
  8
0
  6
Continuous
 62
     7
370
    40
100
AcDbLine
 10
2174.1755956953
 20
995.1119241356
 30
0.0
 11
2202.1755928343
 21
995.1119241356
 31
0.0
  0
LINE
  5
391
330
1F
100
AcDbEntity
  8
0
  6
Continuous
 62
     7
370
    40
100
AcDbLine
 10
2162.175601179
 20
982.1119238674
 30
0.0
 11
2162.175601179
 21
983.1119240313
 31
0.0
  0
LINE
  5
392
330
1F
100
AcDbEntity
  8
0
  6
Continuous
 62
     7
370
    40
100
AcDbLine
 10
2752.1756047552
 20
1007.2994255512
 30
0.0
 11
2752.1756047552
 21
995.1119241356
 31
0.0
  0
ARC
  5
393
330
1F
100
AcDbEntity
  8
0
  6
Continuous
 62
     7
370
    40
100
AcDbCircle
 10
2174.1755924604
 20
1008.1119237631
 30
0.0
 40
13.0
100
AcDbArc
 50
270.0
 51
356.4166783015
  0
LINE
  5
394
330
1F
100
AcDbEntity
  8
0
  6
Continuous
 62
     7
370
    40
100
AcDbLine
 10
2207.1755880659
 20
1010.111922869
 30
0.0
 11
2752.1756047552
 21
1010.111922869
 31
0.0
  0
LINE
  5
395
330
1F
100
AcDbEntity
  8
0
  6
Continuous
 62
     7
370
    40
100
AcDbLine
 10
2752.1756047552
 20
1010.111922869
 30
0.0
 11
2752.1756047552
 21
1007.2994255512
 31
0.0
  0
LINE
  5
396
330
1F
100
AcDbEntity
  8
0
  6
Continuous
 62
     7
370
    40
100
AcDbLine
 10
2190.1443058794
 20
1010.111922869
 30
0.0
 11
2207.1755880659
 21
1010.111922869
 31
0.0
  0
ARC
  5
397
330
1F
100
AcDbEntity
  8
0
  6
Continuous
 62
     7
370
    40
100
AcDbCircle
 10
2190.1443118831
 20
1007.1119237631
 30
0.0
 40
3.000000000000114
100
AcDbArc
 50
90.0
 51
176.4166783015
  0
ARC
  5
398
330
1F
100
AcDbEntity
  8
0
  6
Continuous
 62
     7
370
    40
100
AcDbCircle
 10
2750.9755924604
 20
806.2119237631
 30
0.0
 40
1.000000000000114
100
AcDbArc
 50
270.0
 51
0.0
  0
ARC
  5
399
330
1F
100
AcDbEntity
  8
0
  6
Continuous
 62
     7
370
    40
100
AcDbCircle
 10
2750.9755924604
 20
969.3119237631
 30
0.0
 40
1.0
100
AcDbArc
 50
0.0
 51
53.1301023542
  0
LWPOLYLINE
  5
39A
330
1F
100
AcDbEntity
  8
0
  6
Continuous
 62
     7
370
    40
100
AcDbPolyline
 90
        6
 70
   128
 43
0.0
 10
2692.175602371
 20
970.1119237631
 10
2692.2684664076
 20
970.0190305427
 10
2692.4200410193
 20
969.8674939915
 10
2692.5928944891
 20
969.6946071978
 10
2692.7805299109
 20
969.507014093
 10
2692.9756159132
 20
969.3119237833
  0
LINE
  5
39B
330
1F
100
AcDbEntity
  8
0
  6
Continuous
 62
     7
370
    40
100
AcDbLine
 10
2750.975584442
 20
805.2119188993
 30
0.0
 11
2692.9756159132
 21
805.2119188993
 31
0.0
  0
LINE
  5
39C
330
1F
100
AcDbEntity
  8
0
  6
Continuous
 62
     7
370
    40
100
AcDbLine
 10
2751.9755715674
 20
969.3119237833
 30
0.0
 11
2751.9755715674
 21
806.2119209259
 31
0.0
  0
ARC
  5
39D
330
1F
100
AcDbEntity
  8
0
  6
Continuous
 62
     7
370
    40
100
AcDbCircle
 10
2692.9755924604
 20
806.2119237631
 30
0.0
 40
1.000000000000114
100
AcDbArc
 50
180.0
 51
270.0
  0
LINE
  5
39E
330
1F
100
AcDbEntity
  8
0
  6
Continuous
 62
     7
370
    40
100
AcDbLine
 10
2691.9755691832
 20
806.2119209259
 30
0.0
 11
2691.9755691832
 21
970.1119237631
 31
0.0
  0
ARC
  5
39F
330
1F
100
AcDbEntity
  8
0
  6
Continuous
 62
     7
370
    40
100
AcDbCircle
 10
2250.1755924604
 20
969.1119237631
 30
0.0
 40
1.0
100
AcDbArc
 50
0.0
 51
90.0
  0
LINE
  5
3A0
330
1F
100
AcDbEntity
  8
0
  6
Continuous
 62
     7
370
    40
100
AcDbLine
 10
2219.1755825823
 20
805.1119172066
 30
0.0
 11
2188.1755942648
 21
805.1119172066
 31
0.0
  0
ARC
  5
3A1
330
1F
100
AcDbEntity
  8
0
  6
Continuous
 62
     7
370
    40
100
AcDbCircle
 10
2188.1755924604
 20
806.1119237631
 30
0.0
 40
1.000000000000455
100
AcDbArc
 50
180.0
 51
270.0
  0
LINE
  5
3A2
330
1F
100
AcDbEntity
  8
0
  6
Continuous
 62
     7
370
    40
100
AcDbLine
 10
2250.1756007021
 20
805.1119172066
 30
0.0
 11
2219.1755825823
 21
805.1119172066
 31
0.0
  0
LINE
  5
3A3
330
1F
100
AcDbEntity
  8
0
  6
Continuous
 62
     7
370
    40
100
AcDbLine
 10
2251.1755878275
 20
969.1119237156
 30
0.0
 11
2251.1755878275
 21
806.1119192331
 31
0.0
  0
ARC
  5
3A4
330
1F
100
AcDbEntity
  8
0
  6
Continuous
 62
     7
370
    40
100
AcDbCircle
 10
2188.1755924604
 20
969.1119237631
 30
0.0
 40
1.000000000000455
100
AcDbArc
 50
90.0
 51
180.0
  0
LINE
  5
3A5
330
1F
100
AcDbEntity
  8
0
  6
Continuous
 62
     7
370
    40
100
AcDbLine
 10
2187.1756071394
 20
969.1119237156
 30
0.0
 11
2187.1756071394
 21
806.1119192331
 31
0.0
  0
ARC
  5
3A6
330
1F
100
AcDbEntity
  8
0
  6
Continuous
 62
     7
370
    40
100
AcDbCircle
 10
2250.1755924604
 20
806.1119237631
 30
0.0
 40
1.0
100
AcDbArc
 50
270.0
 51
0.0
  0
LINE
  5
3A7
330
1F
100
AcDbEntity
  8
0
  6
Continuous
 62
     7
370
    40
100
AcDbLine
 10
2241.3533682173
 20
753.9919191091
 30
0.0
 11
2196.9978267496
 21
753.9919191091
 31
0.0
  0
LINE
  5
3A8
330
1F
100
AcDbEntity
  8
0
  6
Continuous
 62
     7
370
    40
100
AcDbLine
 10
2240.1755804365
 20
740.7349371403
 30
0.0
 11
2198.1755847281
 21
740.7349371403
 31
0.0
  0
LINE
  5
3A9
330
1F
100
AcDbEntity
  8
0
  6
Continuous
 62
     7
370
    40
100
AcDbLine
 10
2233.6756045168
 20
177.234964916
 30
0.0
 11
2204.6755904501
 21
177.234964916
 31
0.0
  0
LINE
  5
3AA
330
1F
100
AcDbEntity
  8
0
  6
Continuous
 62
     7
370
    40
100
AcDbLine
 10
2228.8725430315
 20
113.2349544256
 30
0.0
 11
2209.4786519354
 21
113.2349544256
 31
0.0
  0
LINE
  5
3AB
330
1F
100
AcDbEntity
  8
0
  6
PHANTOM
 62
     8
370
     0
100
AcDbLine
 10
2251.3755912131
 20
806.0119175404
 30
0.0
 11
2691.9755691832
 21
806.0119175404
 31
0.0
  0
SPLINE
  5
3AC
330
1F
100
AcDbEntity
  8
0
  6
PHANTOM
 62
     8
370
     0
100
AcDbSpline
210
0.0
220
0.0
230
1.0
 70
     8
 71
     3
 72
    12
 73
     8
 74
     0
 42
0.000000001
 43
0.00000001
 40
0.0
 40
0.0
 40
0.0
 40
0.0
 40
0.2214524450638278
 40
0.4440097707535398
 40
0.6465539568276897
 40
0.840790396594863
 40
1.0
 40
1.0
 40
1.0
 40
1.0
 10
2672.458505088636
 20
826.0015719621621
 30
0.0
 10
2672.446184173074
 20
825.8525535256698
 30
0.0
 10
2672.421480869876
 20
825.5537731631142
 30
0.0
 10
2672.204818057744
 20
825.1623446694139
 30
0.0
 10
2671.883750869961
 20
824.8896228478754
 30
0.0
 10
2671.529826344049
 20
824.7496181349899
 30
0.0
 10
2671.292740933855
 20
824.7354222341878
 30
0.0
 10
2671.185945922682
 20
824.7290276973687
 30
0.0
  0
LINE
  5
3AD
330
1F
100
AcDbEntity
  8
0
  6
PHANTOM
 62
     8
370
     0
100
AcDbLine
 10
2672.4585050886
 20
949.1222747653
 30
0.0
 11
2672.4585050886
 21
826.0015719622
 31
0.0
  0
SPLINE
  5
3AE
330
1F
100
AcDbEntity
  8
0
  6
PHANTOM
 62
     8
370
     0
100
AcDbSpline
210
0.0
220
0.0
230
1.0
 70
     8
 71
     3
 72
    12
 73
     8
 74
     0
 42
0.000000001
 43
0.00000001
 40
0.0
 40
0.0
 40
0.0
 40
0.0
 40
0.2214394134612022
 40
0.4440125078398457
 40
0.6465556031148456
 40
0.8407798028225091
 40
1.0
 40
1.0
 40
1.0
 40
1.0
 10
2671.185945922682
 20
950.3948227553807
 30
0.0
 10
2671.33495793024
 20
950.382513293422
 30
0.0
 10
2671.633744827026
 20
950.3578313499999
 30
0.0
 10
2672.02520141971
 20
950.1411938613327
 30
0.0
 10
2672.297911014803
 20
949.8200969328893
 30
0.0
 10
2672.437874262722
 20
949.4661607349037
 30
0.0
 10
2672.45209769439
 20
949.2290767417187
 30
0.0
 10
2672.458505088636
 20
949.122274765297
 30
0.0
  0
LINE
  5
3AF
330
1F
100
AcDbEntity
  8
0
  6
PHANTOM
 62
     8
370
     0
100
AcDbLine
 10
2271.1652273482
 20
950.3948227554
 30
0.0
 11
2671.1859459227
 21
950.3948227554
 31
0.0
  0
SPLINE
  5
3B0
330
1F
100
AcDbEntity
  8
0
  6
PHANTOM
 62
     8
370
     0
100
AcDbSpline
210
0.0
220
0.0
230
1.0
 70
     8
 71
     3
 72
    12
 73
     8
 74
     0
 42
0.000000001
 43
0.00000001
 40
0.0
 40
0.0
 40
0.0
 40
0.0
 40
0.221448005440574
 40
0.4440019563536013
 40
0.6465541078987928
 40
0.8407902455750921
 40
1.0
 40
1.0
 40
1.0
 40
1.0
 10
2269.892697984526
 20
949.122274765297
 30
0.0
 10
2269.905010233224
 20
949.2712900030042
 30
0.0
 10
2269.929696219891
 20
949.5700646834844
 30
0.0
 10
2270.146316309352
 20
949.9615260385243
 30
0.0
 10
2270.46742503062
 20
950.2342102718313
 30
0.0
 10
2270.821345896916
 20
950.3742241475773
 30
0.0
 10
2271.058431915835
 20
950.3884256751727
 30
0.0
 10
2271.165227348158
 20
950.3948227553807
 30
0.0
  0
LINE
  5
3B1
330
1F
100
AcDbEntity
  8
0
  6
PHANTOM
 62
     8
370
     0
100
AcDbLine
 10
2269.8926979845
 20
826.0015719622
 30
0.0
 11
2269.8926979845
 21
949.1222747653
 31
0.0
  0
SPLINE
  5
3B2
330
1F
100
AcDbEntity
  8
0
  6
PHANTOM
 62
     8
370
     0
100
AcDbSpline
210
0.0
220
0.0
230
1.0
 70
     8
 71
     3
 72
    12
 73
     8
 74
     0
 42
0.000000001
 43
0.00000001
 40
0.0
 40
0.0
 40
0.0
 40
0.0
 40
0.2214408352532061
 40
0.4440037859083807
 40
0.6465479931592668
 40
0.8407836568723533
 40
1.0
 40
1.0
 40
1.0
 40
1.0
 10
2271.165227348158
 20
824.7290276973687
 30
0.0
 10
2271.016214481586
 20
824.7413320863627
 30
0.0
 10
2270.717433649988
 20
824.7660032148399
 30
0.0
 10
2270.325995619625
 20
824.9826627192004
 30
0.0
 10
2270.053299023355
 20
825.3037560120603
 30
0.0
 10
2269.913285401258
 20
825.6576804906529
 30
0.0
 10
2269.899091695405
 20
825.8947716447055
 30
0.0
 10
2269.892697984526
 20
826.0015719621621
 30
0.0
  0
LINE
  5
3B3
330
1F
100
AcDbEntity
  8
0
  6
PHANTOM
 62
     8
370
     0
100
AcDbLine
 10
2671.1859459227
 20
824.7290276974
 30
0.0
 11
2271.1652273482
 21
824.7290276974
 31
0.0
  0
LINE
  5
3B4
330
1F
100
AcDbEntity
  8
0
  6
PHANTOM
 62
     8
370
     0
100
AcDbLine
 10
2671.1859459227
 20
824.7290276974
 30
0.0
 11
2671.1859459227
 21
825.1532041519
 31
0.0
  0
SPLINE
  5
3B5
330
1F
100
AcDbEntity
  8
0
  6
PHANTOM
 62
     8
370
     0
100
AcDbSpline
210
0.0
220
0.0
230
1.0
 70
     8
 71
     3
 72
    14
 73
    10
 74
     0
 42
0.000000001
 43
0.00000001
 40
0.0
 40
0.0
 40
0.0
 40
0.0
 40
0.1656724793740391
 40
0.3584502311773726
 40
0.5178785045452124
 40
0.5538850483238151
 40
0.7491168934347829
 40
0.771598115937727
 40
1.0
 40
1.0
 40
1.0
 40
1.0
 10
2671.185945922682
 20
825.1532041519127
 30
0.0
 10
2671.26257617251
 20
825.151112042561
 30
0.0
 10
2671.428373961436
 20
825.1465855389217
 30
0.0
 10
2671.663105866091
 20
825.2208915447201
 30
0.0
 10
2671.809456834789
 20
825.3322645861153
 30
0.0
 10
2671.927836580881
 20
825.4699118596756
 30
0.0
 10
2671.982100099091
 20
825.5788652463665
 30
0.0
 10
2672.037245757191
 20
825.7779564321156
 30
0.0
 10
2672.035703180605
 20
825.8950086243423
 30
0.0
 10
2672.03429883177
 20
826.0015719621621
 30
0.0
  0
LINE
  5
3B6
330
1F
100
AcDbEntity
  8
0
  6
PHANTOM
 62
     8
370
     0
100
AcDbLine
 10
2672.4585050886
 20
826.0015719622
 30
0.0
 11
2672.0342988318
 21
826.0015719622
 31
0.0
  0
LINE
  5
3B7
330
1F
100
AcDbEntity
  8
0
  6
PHANTOM
 62
     8
370
     0
100
AcDbLine
 10
2671.1859459227
 20
949.9706407129
 30
0.0
 11
2271.1652273482
 21
949.9706407129
 31
0.0
  0
LINE
  5
3B8
330
1F
100
AcDbEntity
  8
0
  6
PHANTOM
 62
     8
370
     0
100
AcDbLine
 10
2271.1652273482
 20
949.9706407129
 30
0.0
 11
2271.1652273482
 21
950.3948227554
 31
0.0
  0
LINE
  5
3B9
330
1F
100
AcDbEntity
  8
0
  6
PHANTOM
 62
     8
370
     0
100
AcDbLine
 10
2671.1859459227
 20
949.9706407129
 30
0.0
 11
2671.1859459227
 21
950.3948227554
 31
0.0
  0
LINE
  5
3BA
330
1F
100
AcDbEntity
  8
0
  6
PHANTOM
 62
     8
370
     0
100
AcDbLine
 10
2672.0342988318
 20
826.0015719622
 30
0.0
 11
2672.0342988318
 21
949.1222747653
 31
0.0
  0
LINE
  5
3BB
330
1F
100
AcDbEntity
  8
0
  6
PHANTOM
 62
     8
370
     0
100
AcDbLine
 10
2672.4585050886
 20
949.1222747653
 30
0.0
 11
2672.0342988318
 21
949.1222747653
 31
0.0
  0
LINE
  5
3BC
330
1F
100
AcDbEntity
  8
0
  6
PHANTOM
 62
     8
370
     0
100
AcDbLine
 10
2271.1652273482
 20
824.7290276974
 30
0.0
 11
2271.1652273482
 21
825.1532041519
 31
0.0
  0
LINE
  5
3BD
330
1F
100
AcDbEntity
  8
0
  6
PHANTOM
 62
     8
370
     0
100
AcDbLine
 10
2271.1652273482
 20
825.1532041519
 30
0.0
 11
2671.1859459227
 21
825.1532041519
 31
0.0
  0
SPLINE
  5
3BE
330
1F
100
AcDbEntity
  8
0
  6
PHANTOM
 62
     8
370
     0
100
AcDbSpline
210
0.0
220
0.0
230
1.0
 70
     8
 71
     3
 72
    14
 73
    10
 74
     0
 42
0.000000001
 43
0.00000001
 40
0.0
 40
0.0
 40
0.0
 40
0.0
 40
0.1656924270709253
 40
0.3584542476571269
 40
0.5178964472877087
 40
0.5538746573199993
 40
0.7491074914131067
 40
0.7715859341825493
 40
1.0
 40
1.0
 40
1.0
 40
1.0
 10
2672.03429883177
 20
949.122274765297
 30
0.0
 10
2672.036402663293
 20
949.1989164809918
 30
0.0
 10
2672.04095403211
 20
949.3647209720247
 30
0.0
 10
2671.96656283063
 20
949.5994254441233
 30
0.0
 10
2671.855255501351
 20
949.7458053350008
 30
0.0
 10
2671.717607273213
 20
949.864172882828
 30
0.0
 10
2671.608680177966
 20
949.91847492339
 30
0.0
 10
2671.409556723356
 20
949.9735186684268
 30
0.0
 10
2671.292507891305
 20
949.9720122057159
 30
0.0
 10
2671.185945922682
 20
949.9706407129012
 30
0.0
  0
LINE
  5
3BF
330
1F
100
AcDbEntity
  8
0
  6
PHANTOM
 62
     8
370
     0
100
AcDbLine
 10
2270.3168744391
 20
826.0015719622
 30
0.0
 11
2269.8926979845
 21
826.0015719622
 31
0.0
  0
SPLINE
  5
3C0
330
1F
100
AcDbEntity
  8
0
  6
PHANTOM
 62
     8
370
     0
100
AcDbSpline
210
0.0
220
0.0
230
1.0
 70
     8
 71
     3
 72
    14
 73
    10
 74
     0
 42
0.000000001
 43
0.00000001
 40
0.0
 40
0.0
 40
0.0
 40
0.0
 40
0.1656937119307333
 40
0.3584515018178262
 40
0.5179035044402901
 40
0.5538961760426093
 40
0.7491283522760946
 40
0.7716067894812338
 40
0.9999999999999999
 40
0.9999999999999999
 40
0.9999999999999999
 40
0.9999999999999999
 10
2270.31687443907
 20
826.0015719621621
 30
0.0
 10
2270.314773171463
 20
825.9249301921061
 30
0.0
 10
2270.31022741942
 20
825.7591281392797
 30
0.0
 10
2270.384573812945
 20
825.5244105520769
 30
0.0
 10
2270.495899102556
 20
825.3780155209722
 30
0.0
 10
2270.633616374556
 20
825.2597128909063
 30
0.0
 10
2270.742522213952
 20
825.2053761526087
 30
0.0
 10
2270.941637907798
 20
825.1503372742732
 30
0.0
 10
2271.058676013872
 20
825.1518379441114
 30
0.0
 10
2271.165227348158
 20
825.1532041519127
 30
0.0
  0
LINE
  5
3C1
330
1F
100
AcDbEntity
  8
0
  6
PHANTOM
 62
     8
370
     0
100
AcDbLine
 10
2270.3168744391
 20
949.1222747653
 30
0.0
 11
2270.3168744391
 21
826.0015719622
 31
0.0
  0
LINE
  5
3C2
330
1F
100
AcDbEntity
  8
0
  6
PHANTOM
 62
     8
370
     0
100
AcDbLine
 10
2270.3168744391
 20
949.1222747653
 30
0.0
 11
2269.8926979845
 21
949.1222747653
 31
0.0
  0
SPLINE
  5
3C3
330
1F
100
AcDbEntity
  8
0
  6
PHANTOM
 62
     8
370
     0
100
AcDbSpline
210
0.0
220
0.0
230
1.0
 70
     8
 71
     3
 72
    14
 73
    10
 74
     0
 42
0.000000001
 43
0.00000001
 40
0.0
 40
0.0
 40
0.0
 40
0.0
 40
0.1656730982421021
 40
0.3584309120892651
 40
0.5178945241795829
 40
0.553885249457063
 40
0.7491214231747215
 40
0.7715996592275345
 40
1.0
 40
1.0
 40
1.0
 40
1.0
 10
2271.165227348158
 20
949.9706407129012
 30
0.0
 10
2271.088595052706
 20
949.9727363759961
 30
0.0
 10
2270.922802393272
 20
949.9772703072289
 30
0.0
 10
2270.688098936731
 20
949.902918543588
 30
0.0
 10
2270.541675296422
 20
949.7916218779033
 30
0.0
 10
2270.423366628839
 20
949.653903634566
 30
0.0
 10
2270.368988927259
 20
949.5450063854242
 30
0.0
 10
2270.314057671327
 20
949.3458565398529
 30
0.0
 10
2270.315532108563
 20
949.2288226471755
 30
0.0
 10
2270.31687443907
 20
949.122274765297
 30
0.0
  0
LWPOLYLINE
  5
3C4
330
1F
100
AcDbEntity
  8
0
  6
PHANTOM
 62
     8
370
     0
100
AcDbPolyline
 90
        6
 70
   128
 43
0.0
 10
2665.2474159544
 20
943.1837205826
 10
2666.6557545012
 20
944.7932825475
 10
2668.0065149611
 20
946.3370149075
 10
2669.2444438284
 20
947.7517870306
 10
2670.3188771551
 20
948.9797358453
 10
2671.1859459227
 20
949.9706407129
  0
LWPOLYLINE
  5
3C5
330
1F
100
AcDbEntity
  8
0
  6
PHANTOM
 62
     8
370
     0
100
AcDbPolyline
 90
        6
 70
   128
 43
0.0
 10
2672.0342988318
 20
949.1222747653
 10
2671.043431217
 20
948.2552339374
 10
2669.8154563254
 20
947.180778259
 10
2668.400680477
 20
945.9428531169
 10
2666.8569797819
 20
944.5920870691
 10
2665.2474159544
 20
943.1837205826
  0
LWPOLYLINE
  5
3C6
330
1F
100
AcDbEntity
  8
0
  6
PHANTOM
 62
     8
370
     0
100
AcDbPolyline
 90
        6
 70
   128
 43
0.0
 10
2665.2474159544
 20
831.9401317327
 10
2666.8569797819
 20
830.5317633837
 10
2668.400680477
 20
829.1809880226
 10
2669.8154563254
 20
827.9430740564
 10
2671.043431217
 20
826.8686109274
 10
2672.0342988318
 20
826.0015719622
  0
LWPOLYLINE
  5
3C7
330
1F
100
AcDbEntity
  8
0
  6
PHANTOM
 62
     8
370
     0
100
AcDbPolyline
 90
        6
 70
   128
 43
0.0
 10
2671.1859459227
 20
825.1532041519
 10
2670.3188771551
 20
826.1441164701
 10
2669.2444438284
 20
827.3720615595
 10
2668.0065149611
 20
828.7868374079
 10
2666.6557545012
 20
830.3305679052
 10
2665.2474159544
 20
831.9401317327
  0
LWPOLYLINE
  5
3C8
330
1F
100
AcDbEntity
  8
0
  6
PHANTOM
 62
     8
370
     0
100
AcDbPolyline
 90
        6
 70
   128
 43
0.0
 10
2277.1037871187
 20
831.9401317327
 10
2275.6954187697
 20
830.3305679052
 10
2274.3446583098
 20
828.7868374079
 10
2273.1067294424
 20
827.3720615595
 10
2272.0322961157
 20
826.1441164701
 10
2271.1652273482
 20
825.1532041519
  0
LWPOLYLINE
  5
3C9
330
1F
100
AcDbEntity
  8
0
  6
PHANTOM
 62
     8
370
     0
100
AcDbPolyline
 90
        6
 70
   128
 43
0.0
 10
2270.3168744391
 20
826.0015719622
 10
2271.3077718561
 20
826.8686109274
 10
2272.5357169455
 20
827.9430740564
 10
2273.9504927939
 20
829.1809880226
 10
2275.4942232912
 20
830.5317633837
 10
2277.1037871187
 20
831.9401317327
  0
LWPOLYLINE
  5
3CA
330
1F
100
AcDbEntity
  8
0
  6
PHANTOM
 62
     8
370
     0
100
AcDbPolyline
 90
        6
 70
   128
 43
0.0
 10
2277.1037871187
 20
943.1837205826
 10
2275.4942232912
 20
944.5920870691
 10
2273.9504927939
 20
945.9428531169
 10
2272.5357169455
 20
947.180778259
 10
2271.3077718561
 20
948.2552339374
 10
2270.3168744391
 20
949.1222747653
  0
LWPOLYLINE
  5
3CB
330
1F
100
AcDbEntity
  8
0
  6
PHANTOM
 62
     8
370
     0
100
AcDbPolyline
 90
        6
 70
   128
 43
0.0
 10
2271.1652273482
 20
949.9706407129
 10
2272.0322961157
 20
948.9797358453
 10
2273.1067294424
 20
947.7517870306
 10
2274.3446583098
 20
946.3370149075
 10
2275.6954187697
 20
944.7932825475
 10
2277.1037871187
 20
943.1837205826
  0
LINE
  5
3CC
330
1F
100
AcDbEntity
  8
0
  6
PHANTOM
 62
     8
370
     0
100
AcDbLine
 10
2277.1037871187
 20
831.9401317327
 30
0.0
 11
2665.2474159544
 21
831.9401317327
 31
0.0
  0
LINE
  5
3CD
330
1F
100
AcDbEntity
  8
0
  6
PHANTOM
 62
     8
370
     0
100
AcDbLine
 10
2665.2474159544
 20
831.9401317327
 30
0.0
 11
2665.2474159544
 21
943.1837205826
 31
0.0
  0
LINE
  5
3CE
330
1F
100
AcDbEntity
  8
0
  6
PHANTOM
 62
     8
370
     0
100
AcDbLine
 10
2665.2474159544
 20
943.1837205826
 30
0.0
 11
2277.1037871187
 21
943.1837205826
 31
0.0
  0
LINE
  5
3CF
330
1F
100
AcDbEntity
  8
0
  6
PHANTOM
 62
     8
370
     0
100
AcDbLine
 10
2277.1037871187
 20
943.1837205826
 30
0.0
 11
2277.1037871187
 21
831.9401317327
 31
0.0
  0
LINE
  5
3D0
330
1F
100
AcDbEntity
  8
0
  6
PHANTOM
 62
     8
370
     0
100
AcDbLine
 10
2663.1756181067
 20
833.0119275539
 30
0.0
 11
2663.1756181067
 21
832.0119255274
 31
0.0
  0
LINE
  5
3D1
330
1F
100
AcDbEntity
  8
0
  6
PHANTOM
 62
     8
370
     0
100
AcDbLine
 10
2663.1756181067
 20
832.0119255274
 30
0.0
 11
2279.1755849665
 21
832.0119255274
 31
0.0
  0
LINE
  5
3D2
330
1F
100
AcDbEntity
  8
0
  6
PHANTOM
 62
     8
370
     0
100
AcDbLine
 10
2279.1755849665
 20
833.0119275539
 30
0.0
 11
2279.1755849665
 21
832.0119255274
 31
0.0
  0
ARC
  5
3D3
330
1F
100
AcDbEntity
  8
0
  6
PHANTOM
 62
     8
370
     0
100
AcDbCircle
 10
2663.1755924604
 20
941.1119237631
 30
0.0
 40
2.0
100
AcDbArc
 50
0.0
 51
90.0
  0
LINE
  5
3D4
330
1F
100
AcDbEntity
  8
0
  6
PHANTOM
 62
     8
370
     0
100
AcDbLine
 10
2279.1755849665
 20
943.1119230627
 30
0.0
 11
2663.1756181067
 21
943.1119230627
 31
0.0
  0
ARC
  5
3D5
330
1F
100
AcDbEntity
  8
0
  6
PHANTOM
 62
     8
370
     0
100
AcDbCircle
 10
2279.1755924604
 20
941.1119237631
 30
0.0
 40
2.0
100
AcDbArc
 50
90.0
 51
180.0
  0
LINE
  5
3D6
330
1F
100
AcDbEntity
  8
0
  6
PHANTOM
 62
     8
370
     0
100
AcDbLine
 10
2277.1755809134
 20
834.0119295805
 30
0.0
 11
2277.1755809134
 21
941.1119245975
 31
0.0
  0
ARC
  5
3D7
330
1F
100
AcDbEntity
  8
0
  6
PHANTOM
 62
     8
370
     0
100
AcDbCircle
 10
2279.1755924604
 20
834.0119237631
 30
0.0
 40
2.0
100
AcDbArc
 50
180.0
 51
270.0
  0
ARC
  5
3D8
330
1F
100
AcDbEntity
  8
0
  6
PHANTOM
 62
     8
370
     0
100
AcDbCircle
 10
2663.1755924604
 20
834.0119237631
 30
0.0
 40
2.0
100
AcDbArc
 50
270.0
 51
0.0
  0
LINE
  5
3D9
330
1F
100
AcDbEntity
  8
0
  6
PHANTOM
 62
     8
370
     0
100
AcDbLine
 10
2665.1755923575
 20
941.1119245975
 30
0.0
 11
2665.1755923575
 21
834.0119295805
 31
0.0
  0
LINE
  5
3DA
330
1F
100
AcDbEntity
  8
0
  6
PHANTOM
 62
     8
370
     0
100
AcDbLine
 10
2665.1755923575
 20
941.1119245975
 30
0.0
 11
2664.1756052321
 21
941.1119245975
 31
0.0
  0
LINE
  5
3DB
330
1F
100
AcDbEntity
  8
0
  6
PHANTOM
 62
     8
370
     0
100
AcDbLine
 10
2663.1756181067
 20
943.1119230627
 30
0.0
 11
2663.1756181067
 21
942.1119228988
 31
0.0
  0
LINE
  5
3DC
330
1F
100
AcDbEntity
  8
0
  6
PHANTOM
 62
     8
370
     0
100
AcDbLine
 10
2665.1755923575
 20
834.0119295805
 30
0.0
 11
2664.1756052321
 21
834.0119295805
 31
0.0
  0
LINE
  5
3DD
330
1F
100
AcDbEntity
  8
0
  6
PHANTOM
 62
     8
370
     0
100
AcDbLine
 10
2279.1755849665
 20
943.1119230627
 30
0.0
 11
2279.1755849665
 21
942.1119228988
 31
0.0
  0
LINE
  5
3DE
330
1F
100
AcDbEntity
  8
0
  6
PHANTOM
 62
     8
370
     0
100
AcDbLine
 10
2278.1755978411
 20
834.0119295805
 30
0.0
 11
2277.1755809134
 21
834.0119295805
 31
0.0
  0
LINE
  5
3DF
330
1F
100
AcDbEntity
  8
0
  6
PHANTOM
 62
     8
370
     0
100
AcDbLine
 10
2278.1755978411
 20
941.1119245975
 30
0.0
 11
2277.1755809134
 21
941.1119245975
 31
0.0
  0
LINE
  5
3E0
330
1F
100
AcDbEntity
  8
0
  6
PHANTOM
 62
     8
370
     0
100
AcDbLine
 10
2664.1756052321
 20
941.1119245975
 30
0.0
 11
2663.1756181067
 21
941.1119245975
 31
0.0
  0
LINE
  5
3E1
330
1F
100
AcDbEntity
  8
0
  6
PHANTOM
 62
     8
370
     0
100
AcDbLine
 10
2663.1756181067
 20
941.1119245975
 30
0.0
 11
2663.1756181067
 21
942.1119228988
 31
0.0
  0
LINE
  5
3E2
330
1F
100
AcDbEntity
  8
0
  6
PHANTOM
 62
     8
370
     0
100
AcDbLine
 10
2663.1756181067
 20
833.0119275539
 30
0.0
 11
2663.1756181067
 21
834.0119295805
 31
0.0
  0
LINE
  5
3E3
330
1F
100
AcDbEntity
  8
0
  6
PHANTOM
 62
     8
370
     0
100
AcDbLine
 10
2663.1756181067
 20
834.0119295805
 30
0.0
 11
2664.1756052321
 21
834.0119295805
 31
0.0
  0
LINE
  5
3E4
330
1F
100
AcDbEntity
  8
0
  6
PHANTOM
 62
     8
370
     0
100
AcDbLine
 10
2279.1755849665
 20
942.1119228988
 30
0.0
 11
2279.1755849665
 21
941.1119245975
 31
0.0
  0
LINE
  5
3E5
330
1F
100
AcDbEntity
  8
0
  6
PHANTOM
 62
     8
370
     0
100
AcDbLine
 10
2663.1756181067
 20
941.1119245975
 30
0.0
 11
2279.1755849665
 21
941.1119245975
 31
0.0
  0
LINE
  5
3E6
330
1F
100
AcDbEntity
  8
0
  6
PHANTOM
 62
     8
370
     0
100
AcDbLine
 10
2279.1755849665
 20
834.0119295805
 30
0.0
 11
2279.1755849665
 21
833.0119275539
 31
0.0
  0
LINE
  5
3E7
330
1F
100
AcDbEntity
  8
0
  6
PHANTOM
 62
     8
370
     0
100
AcDbLine
 10
2279.1755849665
 20
834.0119295805
 30
0.0
 11
2663.1756181067
 21
834.0119295805
 31
0.0
  0
LINE
  5
3E8
330
1F
100
AcDbEntity
  8
0
  6
PHANTOM
 62
     8
370
     0
100
AcDbLine
 10
2663.1756181067
 20
834.0119295805
 30
0.0
 11
2663.1756181067
 21
941.1119245975
 31
0.0
  0
LINE
  5
3E9
330
1F
100
AcDbEntity
  8
0
  6
PHANTOM
 62
     8
370
     0
100
AcDbLine
 10
2278.1755978411
 20
834.0119295805
 30
0.0
 11
2279.1755849665
 21
834.0119295805
 31
0.0
  0
LINE
  5
3EA
330
1F
100
AcDbEntity
  8
0
  6
PHANTOM
 62
     8
370
     0
100
AcDbLine
 10
2279.1755849665
 20
941.1119245975
 30
0.0
 11
2278.1755978411
 21
941.1119245975
 31
0.0
  0
LINE
  5
3EB
330
1F
100
AcDbEntity
  8
0
  6
PHANTOM
 62
     8
370
     0
100
AcDbLine
 10
2279.1755849665
 20
941.1119245975
 30
0.0
 11
2279.1755849665
 21
834.0119295805
 31
0.0
  0
SPLINE
  5
3EC
330
1F
100
AcDbEntity
  8
0
  6
PHANTOM
 62
     8
370
     0
100
AcDbSpline
210
0.0
220
0.0
230
1.0
 70
     8
 71
     3
 72
    14
 73
    10
 74
     0
 42
0.000000001
 43
0.00000001
 40
0.0
 40
0.0
 40
0.0
 40
0.0
 40
0.037070275682066
 40
0.1973754663385484
 40
0.35885567655279
 40
0.5192452159522277
 40
0.6789881033546677
 40
0.8389658429750665
 40
1.0
 40
1.0
 40
1.0
 40
1.0
 10
2482.820367271253
 20
805.011930414959
 30
0.0
 10
2482.126367564361
 20
804.5464284327081
 30
0.0
 10
2478.431263784678
 20
802.0679286336701
 30
0.0
 10
2471.360219317899
 20
798.4440935485466
 30
0.0
 10
2461.686114212671
 20
794.2289117058268
 30
0.0
 10
2451.767478484665
 20
791.0265638324587
 30
0.0
 10
2441.724322096924
 20
788.7647181851245
 30
0.0
 10
2431.559901978474
 20
787.3668678809543
 30
0.0
 10
2424.739548372005
 20
787.1970924861602
 30
0.0
 10
2421.318149024793
 20
787.1119254320107
 30
0.0
  0
SPLINE
  5
3ED
330
1F
100
AcDbEntity
  8
0
  6
PHANTOM
 62
     8
370
     0
100
AcDbSpline
210
0.0
220
0.0
230
1.0
 70
     8
 71
     3
 72
    14
 73
    10
 74
     0
 42
0.000000001
 43
0.00000001
 40
0.0
 40
0.0
 40
0.0
 40
0.0
 40
0.0370784340918956
 40
0.1973820247429753
 40
0.3588607049588135
 40
0.5192491996370722
 40
0.6789907383039222
 40
0.8389666170276276
 40
1.0
 40
1.0
 40
1.0
 40
1.0
 10
2359.818076545545
 20
805.011930414959
 30
0.0
 10
2360.512215574044
 20
804.5463214330946
 30
0.0
 10
2364.2073707297
 20
802.067715045588
 30
0.0
 10
2371.278203189667
 20
798.4438421618519
 30
0.0
 10
2380.951939162406
 20
794.22870526479
 30
0.0
 10
2390.870114298922
 20
791.0264532771232
 30
0.0
 10
2400.912868581142
 20
788.7646622301066
 30
0.0
 10
2411.076834907168
 20
787.3668567017799
 30
0.0
 10
2417.896888527025
 20
787.197088944514
 30
0.0
 10
2421.318149024793
 20
787.1119254320107
 30
0.0
  0
ARC
  5
3EE
330
1F
100
AcDbEntity
  8
0
  6
PHANTOM
 62
     8
370
     0
100
AcDbCircle
 10
2419.7226868724
 20
941.1985713118
 30
0.0
 40
154.0909167403936
100
AcDbArc
 50
242.1050739554
 51
267.3808439015
  0
ARC
  5
3EF
330
1F
100
AcDbEntity
  8
0
  6
PHANTOM
 62
     8
370
     0
100
AcDbCircle
 10
2422.9137130957
 20
941.1979554845
 30
0.0
 40
154.0902968990571
100
AcDbArc
 50
272.6191287054
 51
297.8949800943
  0
SPLINE
  5
3F0
330
1F
100
AcDbEntity
  8
0
  6
PHANTOM
 62
     8
370
     0
100
AcDbSpline
210
0.0
220
0.0
230
1.0
 70
     8
 71
     3
 72
    11
 73
     7
 74
     0
 42
0.000000001
 43
0.00000001
 40
0.0
 40
0.0
 40
0.0
 40
0.0
 40
0.297167025412779
 40
0.6040372177168966
 40
0.8011288427295967
 40
1.0
 40
1.0
 40
1.0
 40
1.0
 10
2395.217513496229
 20
787.4637120454751
 30
0.0
 10
2396.660304989517
 20
787.4595921511905
 30
0.0
 10
2399.592998339799
 20
787.451217838874
 30
0.0
 10
2404.331793957887
 20
787.4234896423412
 30
0.0
 10
2408.756471488304
 20
787.3875205194519
 30
0.0
 10
2411.369041751938
 20
787.3083760986077
 30
0.0
 10
2412.68119757826
 20
787.2686260431252
 30
0.0
  0
SPLINE
  5
3F1
330
1F
100
AcDbEntity
  8
0
  6
PHANTOM
 62
     8
370
     0
100
AcDbSpline
210
0.0
220
0.0
230
1.0
 70
     8
 71
     3
 72
    12
 73
     8
 74
     0
 42
0.000000001
 43
0.00000001
 40
0.0
 40
0.0
 40
0.0
 40
0.0
 40
0.0176957907614475
 40
0.2528283395794704
 40
0.5017185035973036
 40
0.7511094820033409
 40
1.0
 40
1.0
 40
1.0
 40
1.0
 10
2341.187333518812
 20
805.011930414959
 30
0.0
 10
2341.47763396914
 20
804.8410471850417
 30
0.0
 10
2345.625297208663
 20
802.399555653841
 30
0.0
 10
2354.379960831244
 20
798.4982969818699
 30
0.0
 10
2367.432442430485
 20
793.5495998145913
 30
0.0
 10
2381.169559910481
 20
789.7326919318878
 30
0.0
 10
2390.537998769542
 20
788.2195320820529
 30
0.0
 10
2395.217513496229
 20
787.4637120454751
 30
0.0
  0
SPLINE
  5
3F2
330
1F
100
AcDbEntity
  8
0
  6
PHANTOM
 62
     8
370
     0
100
AcDbSpline
210
0.0
220
0.0
230
1.0
 70
     8
 71
     3
 72
    15
 73
    11
 74
     0
 42
0.000000001
 43
0.00000001
 40
0.0
 40
0.0
 40
0.0
 40
0.0
 40
0.1440552328794437
 40
0.2879029631916978
 40
0.4329730562007545
 40
0.5780199066338719
 40
0.7070707793320387
 40
0.836119660854964
 40
0.9635943182210823
 40
1.0
 40
1.0
 40
1.0
 40
1.0
 10
2429.955100471327
 20
787.2686260431252
 30
0.0
 10
2432.020984389377
 20
787.3263960990404
 30
0.0
 10
2436.149776448701
 20
787.4418529967131
 30
0.0
 10
2441.835432491519
 20
787.4373050238921
 30
0.0
 10
2446.796762556171
 20
787.4654574543385
 30
0.0
 10
2450.703545754084
 20
787.4713620728855
 30
0.0
 10
2453.50509057696
 20
787.4774709895235
 30
0.0
 10
2455.193486304069
 20
787.4799879987441
 30
0.0
 10
2455.926340809014
 20
787.4811639662076
 30
0.0
 10
2455.783730846028
 20
787.4809423221133
 30
0.0
 10
2455.75205033476
 20
787.4808930843316
 30
0.0
  0
ARC
  5
3F3
330
1F
100
AcDbEntity
  8
0
  6
PHANTOM
 62
     8
370
     0
100
AcDbCircle
 10
2432.2964004963
 20
785.3796454663
 30
0.0
 40
3.008310726390565
100
AcDbArc
 50
141.1031183907
 51
191.2546250359
  0
SPLINE
  5
3F4
330
1F
100
AcDbEntity
  8
0
  6
PHANTOM
 62
     8
370
     0
100
AcDbSpline
210
0.0
220
0.0
230
1.0
 70
     8
 71
     3
 72
     9
 73
     5
 74
     0
 42
0.000000001
 43
0.00000001
 40
0.0
 40
0.0
 40
0.0
 40
0.0
 40
0.4970579930242729
 40
1.0
 40
1.0
 40
1.0
 40
1.0
 10
2429.345941001722
 20
784.7925149887047
 30
0.0
 10
2428.20392143505
 20
784.7469190687153
 30
0.0
 10
2425.906363438401
 20
784.6551874787815
 30
0.0
 10
2423.555182207295
 20
784.6403342568981
 30
0.0
 10
2422.37267440016
 20
784.6328639476739
 30
0.0
  0
ARC
  5
3F5
330
1F
100
AcDbEntity
  8
0
  6
PHANTOM
 62
     8
370
     0
100
AcDbCircle
 10
2440.0326145266
 20
785.18219722
 30
0.0
 40
17.66848189042846
100
AcDbArc
 50
173.7297223221
 51
181.7816783186
  0
ARC
  5
3F6
330
1F
100
AcDbEntity
  8
0
  6
PHANTOM
 62
     8
370
     0
100
AcDbCircle
 10
2402.6241355845
 20
785.1830034177
 30
0.0
 40
17.64794568957949
100
AcDbArc
 50
358.2136290745
 51
6.2749702848
  0
SPLINE
  5
3F7
330
1F
100
AcDbEntity
  8
0
  6
PHANTOM
 62
     8
370
     0
100
AcDbSpline
210
0.0
220
0.0
230
1.0
 70
     8
 71
     3
 72
     9
 73
     5
 74
     0
 42
0.000000001
 43
0.00000001
 40
0.0
 40
0.0
 40
0.0
 40
0.0
 40
0.4970618661565606
 40
1.0
 40
1.0
 40
1.0
 40
1.0
 10
2420.263504440138
 20
784.6328639476739
 30
0.0
 10
2419.094851060964
 20
784.6401658169427
 30
0.0
 10
2416.743728476949
 20
784.6548558782131
 30
0.0
 10
2414.445981582835
 20
784.7464392948759
 30
0.0
 10
2413.290357047865
 20
784.7925000875435
 30
0.0
  0
ARC
  5
3F8
330
1F
100
AcDbEntity
  8
0
  6
PHANTOM
 62
     8
370
     0
100
AcDbCircle
 10
2410.3400834262
 20
785.3796876601
 30
0.0
 40
3.008139572579986
100
AcDbArc
 50
348.7436174346
 51
38.898479168
  0
LINE
  5
3F9
330
1F
100
AcDbEntity
  8
0
  6
PHANTOM
 62
     8
370
     0
100
AcDbLine
 10
2422.3726744002
 20
784.6328639477
 30
0.0
 11
2420.2635044401
 21
784.6328639477
 31
0.0
  0
SPLINE
  5
3FA
330
1F
100
AcDbEntity
  8
0
  6
PHANTOM
 62
     8
370
     0
100
AcDbSpline
210
0.0
220
0.0
230
1.0
 70
     8
 71
     3
 72
    11
 73
     7
 74
     0
 42
0.000000001
 43
0.00000001
 40
0.0
 40
0.0
 40
0.0
 40
0.0
 40
0.2707072516026044
 40
0.5494478710822834
 40
0.772627780537349
 40
1.0
 40
1.0
 40
1.0
 40
1.0
 10
2413.290357047865
 20
784.7925000875435
 30
0.0
 10
2411.615371282036
 20
784.8476097077055
 30
0.0
 10
2408.215693742259
 20
784.9594643525104
 30
0.0
 10
2403.836943241934
 20
784.9906352266747
 30
0.0
 10
2400.053344716151
 20
785.0175970831434
 30
0.0
 10
2398.058453764296
 20
785.0258366681751
 30
0.0
 10
2397.051727229902
 20
785.0299947946511
 30
0.0
  0
ARC
  5
3FB
330
1F
100
AcDbEntity
  8
0
  6
PHANTOM
 62
     8
370
     0
100
AcDbCircle
 10
2394.3320621203
 20
784.8883237537
 30
0.0
 40
2.723352528116167
100
AcDbArc
 50
2.9819195883
 51
71.0263759879
  0
SPLINE
  5
3FC
330
1F
100
AcDbEntity
  8
0
  6
PHANTOM
 62
     8
370
     0
100
AcDbSpline
210
0.0
220
0.0
230
1.0
 70
     8
 71
     3
 72
    16
 73
    12
 74
     0
 42
0.000000001
 43
0.00000001
 40
0.0
 40
0.0
 40
0.0
 40
0.0
 40
0.0143772775828429
 40
0.1404277433842436
 40
0.2701356757867414
 40
0.3961839918195162
 40
0.5258921375000815
 40
0.6518857149268787
 40
0.7815499169846833
 40
0.8895869152743755
 40
1.0
 40
1.0
 40
1.0
 40
1.0
 10
2453.408932143995
 20
785.0534492223702
 30
0.0
 10
2453.424157326916
 20
785.0534824830892
 30
0.0
 10
2453.572866849137
 20
785.053807351805
 30
0.0
 10
2452.991409584399
 20
785.0525282431161
 30
0.0
 10
2451.622585390652
 20
785.0493140185301
 30
0.0
 10
2449.282275164318
 20
785.04315055695
 30
0.0
 10
2446.197902441135
 20
785.0328530121942
 30
0.0
 10
2442.370932333546
 20
785.0170392101146
 30
0.0
 10
2438.187428060237
 20
784.9860834762991
 30
0.0
 10
2433.799195181947
 20
784.9447469660582
 30
0.0
 10
2430.841084208192
 20
784.8436256142239
 30
0.0
 10
2429.345941001722
 20
784.7925149887047
 30
0.0
  0
LINE
  5
3FD
330
1F
100
AcDbEntity
  8
0
  6
PHANTOM
 62
     8
370
     0
100
AcDbLine
 10
2397.468840534
 20
763.7910121172
 30
0.0
 11
2395.0308317488
 21
763.9160924643
 31
0.0
  0
SPLINE
  5
3FE
330
1F
100
AcDbEntity
  8
0
  6
PHANTOM
 62
     8
370
     0
100
AcDbSpline
210
0.0
220
0.0
230
1.0
 70
     8
 71
     3
 72
    13
 73
     9
 74
     0
 42
0.000000001
 43
0.00000001
 40
0.0
 40
0.0
 40
0.0
 40
0.0
 40
0.1142534018871181
 40
0.3333325410114781
 40
0.525127863087834
 40
0.6875472485485661
 40
0.8426600436128125
 40
1.0
 40
1.0
 40
1.0
 40
1.0
 10
2397.46884053404
 20
763.7910121171914
 30
0.0
 10
2397.676481500482
 20
763.8148118968446
 30
0.0
 10
2398.28227082333
 20
763.884247387572
 30
0.0
 10
2399.212716349321
 20
764.5392199664865
 30
0.0
 10
2400.04701050009
 20
765.7386108214889
 30
0.0
 10
2400.540693466849
 20
767.1310359471738
 30
0.0
 10
2400.741041219058
 20
768.6361782131727
 30
0.0
 10
2400.568937697273
 20
769.6724204930115
 30
0.0
 10
2400.48227255995
 20
770.1942347972832
 30
0.0
  0
SPLINE
  5
3FF
330
1F
100
AcDbEntity
  8
0
  6
PHANTOM
 62
     8
370
     0
100
AcDbSpline
210
0.0
220
0.0
230
1.0
 70
     8
 71
     3
 72
     9
 73
     5
 74
     0
 42
0.000000001
 43
0.00000001
 40
0.0
 40
0.0
 40
0.0
 40
0.0
 40
0.5250768716846285
 40
0.9999999999999999
 40
0.9999999999999999
 40
0.9999999999999999
 40
0.9999999999999999
 10
2397.051727229902
 20
785.0299947946511
 30
0.0
 10
2397.640042155529
 20
782.4305361273215
 30
0.0
 10
2398.760477957128
 20
777.4799111664665
 30
0.0
 10
2399.92785717152
 20
772.5402121209273
 30
0.0
 10
2400.48227255995
 20
770.1942347972832
 30
0.0
  0
SPLINE
  5
400
330
1F
100
AcDbEntity
  8
0
  6
PHANTOM
 62
     8
370
     0
100
AcDbSpline
210
0.0
220
0.0
230
1.0
 70
     8
 71
     3
 72
    10
 73
     6
 74
     0
 42
0.000000001
 43
0.00000001
 40
0.0
 40
0.0
 40
0.0
 40
0.0
 40
0.4172556057991684
 40
0.8465693595374593
 40
1.0
 40
1.0
 40
1.0
 40
1.0
 10
2395.030831748792
 20
763.9160924642525
 30
0.0
 10
2394.513072579399
 20
763.9795498137105
 30
0.0
 10
2393.462591669531
 20
764.1082983480431
 30
0.0
 10
2392.838379658069
 20
764.1997600240986
 30
0.0
 10
2392.925158943279
 20
764.1873321723047
 30
0.0
 10
2392.948007041761
 20
764.1840600460015
 30
0.0
  0
LINE
  5
401
330
1F
100
AcDbEntity
  8
0
  6
PHANTOM
 62
     8
370
     0
100
AcDbLine
 10
2394.0234536474
 20
757.5909816711
 30
0.0
 11
2448.6127847975
 21
757.5909816711
 31
0.0
  0
SPLINE
  5
402
330
1F
100
AcDbEntity
  8
0
  6
PHANTOM
 62
     8
370
     0
100
AcDbSpline
210
0.0
220
0.0
230
1.0
 70
     8
 71
     3
 72
    12
 73
     8
 74
     0
 42
0.000000001
 43
0.00000001
 40
0.0
 40
0.0
 40
0.0
 40
0.0
 40
0.2177125572028425
 40
0.4330840154124324
 40
0.6492276894211098
 40
0.8653709617840313
 40
1.0
 40
1.0
 40
1.0
 40
1.0
 10
2394.82060616667
 20
784.5090501993142
 30
0.0
 10
2390.273952556393
 20
785.2339617041614
 30
0.0
 10
2381.229536251121
 20
786.6759896210234
 30
0.0
 10
2367.963131611456
 20
790.2886061012374
 30
0.0
 10
2355.0886067464
 20
794.9550460393818
 30
0.0
 10
2344.119123322745
 20
799.8432038436046
 30
0.0
 10
2337.711410100387
 20
803.578352430822
 30
0.0
 10
2335.252081806013
 20
805.011930414959
 30
0.0
  0
LWPOLYLINE
  5
403
330
1F
100
AcDbEntity
  8
0
  6
PHANTOM
 62
     8
370
     0
100
AcDbPolyline
 90
        9
 70
   128
 43
0.0
 10
2395.2175134962
 20
787.4637120455
 10
2395.2028507536
 20
787.3544567316
 10
2395.1754922217
 20
787.150847265
 10
2395.1363915747
 20
786.859648773
 10
2395.0868005102
 20
786.4905023067
 10
2395.0283879584
 20
786.0556566208
 10
2394.9630612677
 20
785.569521138
 10
2394.8930258101
 20
785.0482189148
 10
2394.8206061667
 20
784.5090501993
  0
SPLINE
  5
404
330
1F
100
AcDbEntity
  8
0
  6
PHANTOM
 62
     8
370
     0
100
AcDbSpline
210
0.0
220
0.0
230
1.0
 70
     8
 71
     3
 72
    13
 73
     9
 74
     0
 42
0.000000001
 43
0.00000001
 40
0.0
 40
0.0
 40
0.0
 40
0.0
 40
0.1232131147720119
 40
0.2984854877713772
 40
0.4735135698282767
 40
0.6491710505099333
 40
0.8248891654812461
 40
1.0
 40
1.0
 40
1.0
 40
1.0
 10
2307.90368264372
 20
805.011930414959
 30
0.0
 10
2310.701514718439
 20
802.8483856291517
 30
0.0
 10
2317.479301913173
 20
797.6071682319464
 30
0.0
 10
2329.088554695961
 20
790.4949308523024
 30
0.0
 10
2342.538164019506
 20
783.6203506532052
 30
0.0
 10
2356.568404136042
 20
777.9849696719483
 30
0.0
 10
2370.995578438497
 20
773.4273994360138
 30
0.0
 10
2380.860261480862
 20
771.3978723517662
 30
0.0
 10
2385.784065181562
 20
770.3848653524361
 30
0.0
  0
LWPOLYLINE
  5
405
330
1F
100
AcDbEntity
  8
0
  6
PHANTOM
 62
     8
370
     0
100
AcDbPolyline
 90
        9
 70
   128
 43
0.0
 10
2385.7840651816
 20
770.3848653524
 10
2385.6795782393
 20
769.8089950769
 10
2385.5791444128
 20
769.2552530258
 10
2385.4865783995
 20
768.7449180572
 10
2385.4054564779
 20
768.2976150005
 10
2385.3388780897
 20
767.9305099934
 10
2385.2894062346
 20
767.6577293365
 10
2385.2588886564
 20
767.4897485464
 10
2385.2486366575
 20
767.4330347269
  0
LWPOLYLINE
  5
406
330
1F
100
AcDbEntity
  8
0
  6
PHANTOM
 62
     8
370
     0
100
AcDbPolyline
 90
        9
 70
   128
 43
0.0
 10
2397.0517272299
 20
785.0299947947
 10
2396.8341106718
 20
784.979181835
 10
2396.5927714651
 20
784.9228256433
 10
2396.3305110281
 20
784.861596772
 10
2396.0504288023
 20
784.7962104767
 10
2395.7559222525
 20
784.7274416178
 10
2395.4503292387
 20
784.656094858
 10
2395.137345249
 20
784.5830046623
 10
2394.8206061667
 20
784.5090501993
  0
ARC
  5
407
330
1F
100
AcDbEntity
  8
0
  6
PHANTOM
 62
     8
370
     0
100
AcDbCircle
 10
2394.7781563864
 20
763.5761036627
 30
0.0
 40
2.69925301267712
100
AcDbArc
 50
4.5665944025
 51
86.3395783807
  0
SPLINE
  5
408
330
1F
100
AcDbEntity
  8
0
  6
PHANTOM
 62
     8
370
     0
100
AcDbSpline
210
0.0
220
0.0
230
1.0
 70
     8
 71
     3
 72
    14
 73
    10
 74
     0
 42
0.000000001
 43
0.00000001
 40
0.0
 40
0.0
 40
0.0
 40
0.0
 40
0.0790085412369422
 40
0.1277184166087027
 40
0.2662717062377015
 40
0.427093784833542
 40
0.6310161927865238
 40
0.8730993719883805
 40
1.0
 40
1.0
 40
1.0
 40
1.0
 10
2398.396765643904
 20
769.6732902019463
 30
0.0
 10
2398.426200043454
 20
769.508244918524
 30
0.0
 10
2398.473781163742
 20
769.2414468997605
 30
0.0
 10
2398.396824583216
 20
768.6934168696021
 30
0.0
 10
2398.118343224275
 20
768.0457514639916
 30
0.0
 10
2397.508087764014
 20
767.3092464518834
 30
0.0
 10
2396.631908965193
 20
766.6707550109033
 30
0.0
 10
2395.731082424884
 20
766.3236112130073
 30
0.0
 10
2395.15024563201
 20
766.2836079690832
 30
0.0
 10
2394.950484687635
 20
766.2698500841103
 30
0.0
  0
LWPOLYLINE
  5
409
330
1F
100
AcDbEntity
  8
0
  6
PHANTOM
 62
     8
370
     0
100
AcDbPolyline
 90
        9
 70
   128
 43
0.0
 10
2400.4822725599
 20
770.1942347973
 10
2400.2694839781
 20
770.1410823553
 10
2400.0380391424
 20
770.0832658499
 10
2399.7902626341
 20
770.0213813274
 10
2399.5285982435
 20
769.9560099333
 10
2399.2556089705
 20
769.8878371208
 10
2398.9741558378
 20
769.8175185411
 10
2398.68686145
 20
769.7457545488
 10
2398.3967656439
 20
769.6732902019
  0
SPLINE
  5
40A
330
1F
100
AcDbEntity
  8
0
  6
PHANTOM
 62
     8
370
     0
100
AcDbSpline
210
0.0
220
0.0
230
1.0
 70
     8
 71
     3
 72
     9
 73
     5
 74
     0
 42
0.000000001
 43
0.00000001
 40
0.0
 40
0.0
 40
0.0
 40
0.0
 40
0.475018954149851
 40
1.0
 40
1.0
 40
1.0
 40
1.0
 10
2398.396765643904
 20
769.6732902019463
 30
0.0
 10
2397.816729603077
 20
772.0190528179228
 30
0.0
 10
2396.595649821399
 20
776.9573033771554
 30
0.0
 10
2395.431672302098
 20
781.9093300549354
 30
0.0
 10
2394.82060616667
 20
784.5090501993142
 30
0.0
  0
ARC
  5
40B
330
1F
100
AcDbEntity
  8
0
  6
PHANTOM
 62
     8
370
     0
100
AcDbCircle
 10
2394.7085705801
 20
786.268387856
 30
0.0
 40
17.00000000000006
100
AcDbArc
 50
263.9817705219
 51
282.5300226426
  0
LWPOLYLINE
  5
40C
330
1F
100
AcDbEntity
  8
0
  6
PHANTOM
 62
     8
370
     0
100
AcDbPolyline
 90
        9
 70
   128
 43
0.0
 10
2392.9261917418
 20
769.3620794504
 10
2392.8648585623
 20
768.7800400942
 10
2392.805849964
 20
768.2203524797
 10
2392.7514905279
 20
767.7045636862
 10
2392.7038068121
 20
767.2524475544
 10
2392.6647061651
 20
766.8814235418
 10
2392.6356190985
 20
766.6057222574
 10
2392.6177377051
 20
766.4359384268
 10
2392.6116580313
 20
766.3786136597
  0
ARC
  5
40D
330
1F
100
AcDbEntity
  8
0
  6
PHANTOM
 62
     8
370
     0
100
AcDbCircle
 10
2403.096160936
 20
865.8274748795
 30
0.0
 40
97.00000000000006
100
AcDbArc
 50
259.7190359747
 51
263.9817705219
  0
ARC
  5
40E
330
1F
100
AcDbEntity
  8
0
  6
PHANTOM
 62
     8
370
     0
100
AcDbCircle
 10
2392.2379598381
 20
763.591938395
 30
0.0
 40
2.811620417197001
100
AcDbArc
 50
6.6204003198
 51
82.3620996895
  0
LINE
  5
40F
330
1F
100
AcDbEntity
  8
0
  6
PHANTOM
 62
     8
370
     0
100
AcDbLine
 10
2202.1755928343
 20
970.1119237631
 30
0.0
 11
2202.1755928343
 21
982.1119238674
 31
0.0
  0
LINE
  5
410
330
1F
100
AcDbEntity
  8
0
  6
PHANTOM
 62
     8
370
     0
100
AcDbLine
 10
2202.1755928343
 20
982.1119238674
 30
0.0
 11
2752.1756047552
 21
982.1119238674
 31
0.0
  0
LINE
  5
411
330
1F
100
AcDbEntity
  8
0
  6
PHANTOM
 62
     8
370
     0
100
AcDbLine
 10
2752.1756047552
 20
983.1119240313
 30
0.0
 11
2202.1755928343
 21
983.1119240313
 31
0.0
  0
LINE
  5
412
330
1F
100
AcDbEntity
  8
0
  6
PHANTOM
 62
     8
370
     0
100
AcDbLine
 10
2202.1755928343
 20
983.1119240313
 30
0.0
 11
2202.1755928343
 21
995.1119241356
 31
0.0
  0
LINE
  5
413
330
1F
100
AcDbEntity
  8
0
  6
PHANTOM
 62
     8
370
     0
100
AcDbLine
 10
2202.1755928343
 20
983.1119240313
 30
0.0
 11
2202.1755928343
 21
982.1119238674
 31
0.0
  0
LINE
  5
414
330
1F
100
AcDbEntity
  8
0
  6
PHANTOM
 62
     8
370
     0
100
AcDbLine
 10
2162.175601179
 20
982.1119238674
 30
0.0
 11
2202.1755928343
 21
982.1119238674
 31
0.0
  0
LINE
  5
415
330
1F
100
AcDbEntity
  8
0
  6
PHANTOM
 62
     8
370
     0
100
AcDbLine
 10
2202.1755928343
 20
983.1119240313
 30
0.0
 11
2162.175601179
 21
983.1119240313
 31
0.0
  0
LINE
  5
416
330
1F
100
AcDbEntity
  8
0
  6
PHANTOM
 62
     8
370
     0
100
AcDbLine
 10
2207.1755880659
 20
995.1119241356
 30
0.0
 11
2207.1755880659
 21
1007.2994255512
 31
0.0
  0
LINE
  5
417
330
1F
100
AcDbEntity
  8
0
  6
PHANTOM
 62
     8
370
     0
100
AcDbLine
 10
2752.1756047552
 20
1007.2994255512
 30
0.0
 11
2207.1755880659
 21
1007.2994255512
 31
0.0
  0
LINE
  5
418
330
1F
100
AcDbEntity
  8
0
  6
PHANTOM
 62
     8
370
     0
100
AcDbLine
 10
2207.1755880659
 20
1007.2994255512
 30
0.0
 11
2187.1501857584
 21
1007.2994255512
 31
0.0
  0
LINE
  5
419
330
1F
100
AcDbEntity
  8
0
  6
PHANTOM
 62
     8
370
     0
100
AcDbLine
 10
2207.1755880659
 20
1010.111922869
 30
0.0
 11
2207.1755880659
 21
1007.2994255512
 31
0.0
  0
SPLINE
  5
41A
330
1F
100
AcDbEntity
  8
0
  6
PHANTOM
 62
     8
370
     0
100
AcDbSpline
210
0.0
220
0.0
230
1.0
 70
     8
 71
     3
 72
    12
 73
     8
 74
     0
 42
0.000000001
 43
0.00000001
 40
0.0
 40
0.0
 40
0.0
 40
0.0
 40
0.2214524450638278
 40
0.4440097707535398
 40
0.6465539568276897
 40
0.840790396594863
 40
1.0
 40
1.0
 40
1.0
 40
1.0
 10
2672.458505088636
 20
826.0015719621621
 30
0.0
 10
2672.446184173074
 20
825.8525535256698
 30
0.0
 10
2672.421480869876
 20
825.5537731631142
 30
0.0
 10
2672.204818057744
 20
825.1623446694139
 30
0.0
 10
2671.883750869961
 20
824.8896228478754
 30
0.0
 10
2671.529826344049
 20
824.7496181349899
 30
0.0
 10
2671.292740933855
 20
824.7354222341878
 30
0.0
 10
2671.185945922682
 20
824.7290276973687
 30
0.0
  0
SPLINE
  5
41B
330
1F
100
AcDbEntity
  8
0
  6
PHANTOM
 62
     8
370
     0
100
AcDbSpline
210
0.0
220
0.0
230
1.0
 70
     8
 71
     3
 72
    12
 73
     8
 74
     0
 42
0.000000001
 43
0.00000001
 40
0.0
 40
0.0
 40
0.0
 40
0.0
 40
0.2214394134612022
 40
0.4440125078398457
 40
0.6465556031148456
 40
0.8407798028225091
 40
1.0
 40
1.0
 40
1.0
 40
1.0
 10
2671.185945922682
 20
950.3948227553807
 30
0.0
 10
2671.33495793024
 20
950.382513293422
 30
0.0
 10
2671.633744827026
 20
950.3578313499999
 30
0.0
 10
2672.02520141971
 20
950.1411938613327
 30
0.0
 10
2672.297911014803
 20
949.8200969328893
 30
0.0
 10
2672.437874262722
 20
949.4661607349037
 30
0.0
 10
2672.45209769439
 20
949.2290767417187
 30
0.0
 10
2672.458505088636
 20
949.122274765297
 30
0.0
  0
SPLINE
  5
41C
330
1F
100
AcDbEntity
  8
0
  6
PHANTOM
 62
     8
370
     0
100
AcDbSpline
210
0.0
220
0.0
230
1.0
 70
     8
 71
     3
 72
    12
 73
     8
 74
     0
 42
0.000000001
 43
0.00000001
 40
0.0
 40
0.0
 40
0.0
 40
0.0
 40
0.221448005440574
 40
0.4440019563536013
 40
0.6465541078987928
 40
0.8407902455750921
 40
1.0
 40
1.0
 40
1.0
 40
1.0
 10
2269.892697984526
 20
949.122274765297
 30
0.0
 10
2269.905010233224
 20
949.2712900030042
 30
0.0
 10
2269.929696219891
 20
949.5700646834844
 30
0.0
 10
2270.146316309352
 20
949.9615260385243
 30
0.0
 10
2270.46742503062
 20
950.2342102718313
 30
0.0
 10
2270.821345896916
 20
950.3742241475773
 30
0.0
 10
2271.058431915835
 20
950.3884256751727
 30
0.0
 10
2271.165227348158
 20
950.3948227553807
 30
0.0
  0
SPLINE
  5
41D
330
1F
100
AcDbEntity
  8
0
  6
PHANTOM
 62
     8
370
     0
100
AcDbSpline
210
0.0
220
0.0
230
1.0
 70
     8
 71
     3
 72
    12
 73
     8
 74
     0
 42
0.000000001
 43
0.00000001
 40
0.0
 40
0.0
 40
0.0
 40
0.0
 40
0.2214408352532061
 40
0.4440037859083807
 40
0.6465479931592668
 40
0.8407836568723533
 40
1.0
 40
1.0
 40
1.0
 40
1.0
 10
2271.165227348158
 20
824.7290276973687
 30
0.0
 10
2271.016214481586
 20
824.7413320863627
 30
0.0
 10
2270.717433649988
 20
824.7660032148399
 30
0.0
 10
2270.325995619625
 20
824.9826627192004
 30
0.0
 10
2270.053299023355
 20
825.3037560120603
 30
0.0
 10
2269.913285401258
 20
825.6576804906529
 30
0.0
 10
2269.899091695405
 20
825.8947716447055
 30
0.0
 10
2269.892697984526
 20
826.0015719621621
 30
0.0
  0
SPLINE
  5
41E
330
1F
100
AcDbEntity
  8
0
  6
PHANTOM
 62
     8
370
     0
100
AcDbSpline
210
0.0
220
0.0
230
1.0
 70
     8
 71
     3
 72
    14
 73
    10
 74
     0
 42
0.000000001
 43
0.00000001
 40
0.0
 40
0.0
 40
0.0
 40
0.0
 40
0.1656724793740391
 40
0.3584502311773726
 40
0.5178785045452124
 40
0.5538850483238151
 40
0.7491168934347829
 40
0.771598115937727
 40
1.0
 40
1.0
 40
1.0
 40
1.0
 10
2671.185945922682
 20
825.1532041519127
 30
0.0
 10
2671.26257617251
 20
825.151112042561
 30
0.0
 10
2671.428373961436
 20
825.1465855389217
 30
0.0
 10
2671.663105866091
 20
825.2208915447201
 30
0.0
 10
2671.809456834789
 20
825.3322645861153
 30
0.0
 10
2671.927836580881
 20
825.4699118596756
 30
0.0
 10
2671.982100099091
 20
825.5788652463665
 30
0.0
 10
2672.037245757191
 20
825.7779564321156
 30
0.0
 10
2672.035703180605
 20
825.8950086243423
 30
0.0
 10
2672.03429883177
 20
826.0015719621621
 30
0.0
  0
SPLINE
  5
41F
330
1F
100
AcDbEntity
  8
0
  6
PHANTOM
 62
     8
370
     0
100
AcDbSpline
210
0.0
220
0.0
230
1.0
 70
     8
 71
     3
 72
    14
 73
    10
 74
     0
 42
0.000000001
 43
0.00000001
 40
0.0
 40
0.0
 40
0.0
 40
0.0
 40
0.1656924270709253
 40
0.3584542476571269
 40
0.5178964472877087
 40
0.5538746573199993
 40
0.7491074914131067
 40
0.7715859341825493
 40
1.0
 40
1.0
 40
1.0
 40
1.0
 10
2672.03429883177
 20
949.122274765297
 30
0.0
 10
2672.036402663293
 20
949.1989164809918
 30
0.0
 10
2672.04095403211
 20
949.3647209720247
 30
0.0
 10
2671.96656283063
 20
949.5994254441233
 30
0.0
 10
2671.855255501351
 20
949.7458053350008
 30
0.0
 10
2671.717607273213
 20
949.864172882828
 30
0.0
 10
2671.608680177966
 20
949.91847492339
 30
0.0
 10
2671.409556723356
 20
949.9735186684268
 30
0.0
 10
2671.292507891305
 20
949.9720122057159
 30
0.0
 10
2671.185945922682
 20
949.9706407129012
 30
0.0
  0
SPLINE
  5
420
330
1F
100
AcDbEntity
  8
0
  6
PHANTOM
 62
     8
370
     0
100
AcDbSpline
210
0.0
220
0.0
230
1.0
 70
     8
 71
     3
 72
    14
 73
    10
 74
     0
 42
0.000000001
 43
0.00000001
 40
0.0
 40
0.0
 40
0.0
 40
0.0
 40
0.1656937119307333
 40
0.3584515018178262
 40
0.5179035044402901
 40
0.5538961760426093
 40
0.7491283522760946
 40
0.7716067894812338
 40
0.9999999999999999
 40
0.9999999999999999
 40
0.9999999999999999
 40
0.9999999999999999
 10
2270.31687443907
 20
826.0015719621621
 30
0.0
 10
2270.314773171463
 20
825.9249301921061
 30
0.0
 10
2270.31022741942
 20
825.7591281392797
 30
0.0
 10
2270.384573812945
 20
825.5244105520769
 30
0.0
 10
2270.495899102556
 20
825.3780155209722
 30
0.0
 10
2270.633616374556
 20
825.2597128909063
 30
0.0
 10
2270.742522213952
 20
825.2053761526087
 30
0.0
 10
2270.941637907798
 20
825.1503372742732
 30
0.0
 10
2271.058676013872
 20
825.1518379441114
 30
0.0
 10
2271.165227348158
 20
825.1532041519127
 30
0.0
  0
SPLINE
  5
421
330
1F
100
AcDbEntity
  8
0
  6
PHANTOM
 62
     8
370
     0
100
AcDbSpline
210
0.0
220
0.0
230
1.0
 70
     8
 71
     3
 72
    14
 73
    10
 74
     0
 42
0.000000001
 43
0.00000001
 40
0.0
 40
0.0
 40
0.0
 40
0.0
 40
0.1656730982421021
 40
0.3584309120892651
 40
0.5178945241795829
 40
0.553885249457063
 40
0.7491214231747215
 40
0.7715996592275345
 40
1.0
 40
1.0
 40
1.0
 40
1.0
 10
2271.165227348158
 20
949.9706407129012
 30
0.0
 10
2271.088595052706
 20
949.9727363759961
 30
0.0
 10
2270.922802393272
 20
949.9772703072289
 30
0.0
 10
2270.688098936731
 20
949.902918543588
 30
0.0
 10
2270.541675296422
 20
949.7916218779033
 30
0.0
 10
2270.423366628839
 20
949.653903634566
 30
0.0
 10
2270.368988927259
 20
949.5450063854242
 30
0.0
 10
2270.314057671327
 20
949.3458565398529
 30
0.0
 10
2270.315532108563
 20
949.2288226471755
 30
0.0
 10
2270.31687443907
 20
949.122274765297
 30
0.0
  0
LWPOLYLINE
  5
422
330
1F
100
AcDbEntity
  8
0
  6
PHANTOM
 62
     8
370
     0
100
AcDbPolyline
 90
        6
 70
   128
 43
0.0
 10
2665.2474159544
 20
831.9401317327
 10
2666.8569797819
 20
830.5317633837
 10
2668.400680477
 20
829.1809880226
 10
2669.8154563254
 20
827.9430740564
 10
2671.043431217
 20
826.8686109274
 10
2672.0342988318
 20
826.0015719622
  0
LWPOLYLINE
  5
423
330
1F
100
AcDbEntity
  8
0
  6
PHANTOM
 62
     8
370
     0
100
AcDbPolyline
 90
        6
 70
   128
 43
0.0
 10
2671.1859459227
 20
825.1532041519
 10
2670.3188771551
 20
826.1441164701
 10
2669.2444438284
 20
827.3720615595
 10
2668.0065149611
 20
828.7868374079
 10
2666.6557545012
 20
830.3305679052
 10
2665.2474159544
 20
831.9401317327
  0
LWPOLYLINE
  5
424
330
1F
100
AcDbEntity
  8
0
  6
PHANTOM
 62
     8
370
     0
100
AcDbPolyline
 90
        6
 70
   128
 43
0.0
 10
2665.2474159544
 20
943.1837205826
 10
2666.6557545012
 20
944.7932825475
 10
2668.0065149611
 20
946.3370149075
 10
2669.2444438284
 20
947.7517870306
 10
2670.3188771551
 20
948.9797358453
 10
2671.1859459227
 20
949.9706407129
  0
LWPOLYLINE
  5
425
330
1F
100
AcDbEntity
  8
0
  6
PHANTOM
 62
     8
370
     0
100
AcDbPolyline
 90
        6
 70
   128
 43
0.0
 10
2672.0342988318
 20
949.1222747653
 10
2671.043431217
 20
948.2552339374
 10
2669.8154563254
 20
947.180778259
 10
2668.400680477
 20
945.9428531169
 10
2666.8569797819
 20
944.5920870691
 10
2665.2474159544
 20
943.1837205826
  0
LWPOLYLINE
  5
426
330
1F
100
AcDbEntity
  8
0
  6
PHANTOM
 62
     8
370
     0
100
AcDbPolyline
 90
        6
 70
   128
 43
0.0
 10
2277.1037871187
 20
831.9401317327
 10
2275.6954187697
 20
830.3305679052
 10
2274.3446583098
 20
828.7868374079
 10
2273.1067294424
 20
827.3720615595
 10
2272.0322961157
 20
826.1441164701
 10
2271.1652273482
 20
825.1532041519
  0
LWPOLYLINE
  5
427
330
1F
100
AcDbEntity
  8
0
  6
PHANTOM
 62
     8
370
     0
100
AcDbPolyline
 90
        6
 70
   128
 43
0.0
 10
2270.3168744391
 20
826.0015719622
 10
2271.3077718561
 20
826.8686109274
 10
2272.5357169455
 20
827.9430740564
 10
2273.9504927939
 20
829.1809880226
 10
2275.4942232912
 20
830.5317633837
 10
2277.1037871187
 20
831.9401317327
  0
LWPOLYLINE
  5
428
330
1F
100
AcDbEntity
  8
0
  6
PHANTOM
 62
     8
370
     0
100
AcDbPolyline
 90
        6
 70
   128
 43
0.0
 10
2277.1037871187
 20
943.1837205826
 10
2275.4942232912
 20
944.5920870691
 10
2273.9504927939
 20
945.9428531169
 10
2272.5357169455
 20
947.180778259
 10
2271.3077718561
 20
948.2552339374
 10
2270.3168744391
 20
949.1222747653
  0
LWPOLYLINE
  5
429
330
1F
100
AcDbEntity
  8
0
  6
PHANTOM
 62
     8
370
     0
100
AcDbPolyline
 90
        6
 70
   128
 43
0.0
 10
2271.1652273482
 20
949.9706407129
 10
2272.0322961157
 20
948.9797358453
 10
2273.1067294424
 20
947.7517870306
 10
2274.3446583098
 20
946.3370149075
 10
2275.6954187697
 20
944.7932825475
 10
2277.1037871187
 20
943.1837205826
  0
LINE
  5
42A
330
1F
100
AcDbEntity
  8
0
  6
PHANTOM
 62
     8
370
     0
100
AcDbLine
 10
2750.975584442
 20
806.2119209259
 30
0.0
 11
2750.975584442
 21
805.2119188993
 31
0.0
  0
LINE
  5
42B
330
1F
100
AcDbEntity
  8
0
  6
PHANTOM
 62
     8
370
     0
100
AcDbLine
 10
2750.975584442
 20
806.2119209259
 30
0.0
 11
2751.9755715674
 21
806.2119209259
 31
0.0
  0
LINE
  5
42C
330
1F
100
AcDbEntity
  8
0
  6
PHANTOM
 62
     8
370
     0
100
AcDbLine
 10
2750.975584442
 20
969.3119237833
 30
0.0
 11
2751.9755715674
 21
969.3119237833
 31
0.0
  0
LINE
  5
42D
330
1F
100
AcDbEntity
  8
0
  6
PHANTOM
 62
     8
370
     0
100
AcDbLine
 10
2750.975584442
 20
970.1119237631
 30
0.0
 11
2750.975584442
 21
969.3119237833
 31
0.0
  0
LINE
  5
42E
330
1F
100
AcDbEntity
  8
0
  6
PHANTOM
 62
     8
370
     0
100
AcDbLine
 10
2750.975584442
 20
969.3119237833
 30
0.0
 11
2692.9756159132
 21
969.3119237833
 31
0.0
  0
LINE
  5
42F
330
1F
100
AcDbEntity
  8
0
  6
PHANTOM
 62
     8
370
     0
100
AcDbLine
 10
2692.9756159132
 20
805.2119188993
 30
0.0
 11
2692.9756159132
 21
806.2119209259
 31
0.0
  0
LINE
  5
430
330
1F
100
AcDbEntity
  8
0
  6
PHANTOM
 62
     8
370
     0
100
AcDbLine
 10
2692.9756159132
 20
806.2119209259
 30
0.0
 11
2750.975584442
 21
806.2119209259
 31
0.0
  0
LINE
  5
431
330
1F
100
AcDbEntity
  8
0
  6
PHANTOM
 62
     8
370
     0
100
AcDbLine
 10
2692.9756159132
 20
969.3119237833
 30
0.0
 11
2692.9756159132
 21
806.2119209259
 31
0.0
  0
LINE
  5
432
330
1F
100
AcDbEntity
  8
0
  6
PHANTOM
 62
     8
370
     0
100
AcDbLine
 10
2750.975584442
 20
806.2119209259
 30
0.0
 11
2750.975584442
 21
969.3119237833
 31
0.0
  0
LINE
  5
433
330
1F
100
AcDbEntity
  8
0
  6
PHANTOM
 62
     8
370
     0
100
AcDbLine
 10
2692.9756159132
 20
806.2119209259
 30
0.0
 11
2691.9755691832
 21
806.2119209259
 31
0.0
  0
LINE
  5
434
330
1F
100
AcDbEntity
  8
0
  6
PHANTOM
 62
     8
370
     0
100
AcDbLine
 10
2250.1756007021
 20
969.1119237156
 30
0.0
 11
2250.1756007021
 21
970.1119237631
 31
0.0
  0
LINE
  5
435
330
1F
100
AcDbEntity
  8
0
  6
PHANTOM
 62
     8
370
     0
100
AcDbLine
 10
2250.1756007021
 20
969.1119237156
 30
0.0
 11
2251.1755878275
 21
969.1119237156
 31
0.0
  0
LINE
  5
436
330
1F
100
AcDbEntity
  8
0
  6
PHANTOM
 62
     8
370
     0
100
AcDbLine
 10
2187.1756071394
 20
806.1119192331
 30
0.0
 11
2219.1755825823
 21
806.1119192331
 31
0.0
  0
LINE
  5
437
330
1F
100
AcDbEntity
  8
0
  6
PHANTOM
 62
     8
370
     0
100
AcDbLine
 10
2219.1755825823
 20
805.1119172066
 30
0.0
 11
2219.1755825823
 21
806.1119192331
 31
0.0
  0
LINE
  5
438
330
1F
100
AcDbEntity
  8
0
  6
PHANTOM
 62
     8
370
     0
100
AcDbLine
 10
2250.1756007021
 20
969.1119237156
 30
0.0
 11
2219.1755825823
 21
969.1119237156
 31
0.0
  0
LINE
  5
439
330
1F
100
AcDbEntity
  8
0
  6
PHANTOM
 62
     8
370
     0
100
AcDbLine
 10
2250.1756007021
 20
806.1119192331
 30
0.0
 11
2250.1756007021
 21
969.1119237156
 31
0.0
  0
LINE
  5
43A
330
1F
100
AcDbEntity
  8
0
  6
PHANTOM
 62
     8
370
     0
100
AcDbLine
 10
2219.1755825823
 20
806.1119192331
 30
0.0
 11
2250.1756007021
 21
806.1119192331
 31
0.0
  0
LINE
  5
43B
330
1F
100
AcDbEntity
  8
0
  6
PHANTOM
 62
     8
370
     0
100
AcDbLine
 10
2219.1755825823
 20
969.1119237156
 30
0.0
 11
2219.1755825823
 21
806.1119192331
 31
0.0
  0
LINE
  5
43C
330
1F
100
AcDbEntity
  8
0
  6
PHANTOM
 62
     8
370
     0
100
AcDbLine
 10
2250.1756007021
 20
806.1119192331
 30
0.0
 11
2250.1756007021
 21
805.1119172066
 31
0.0
  0
LINE
  5
43D
330
1F
100
AcDbEntity
  8
0
  6
PHANTOM
 62
     8
370
     0
100
AcDbLine
 10
2250.1756007021
 20
806.1119192331
 30
0.0
 11
2251.1755878275
 21
806.1119192331
 31
0.0
  0
LINE
  5
43E
330
1F
100
AcDbEntity
  8
0
  6
PHANTOM
 62
     8
370
     0
100
AcDbLine
 10
2219.1755825823
 20
969.1119237156
 30
0.0
 11
2219.1755825823
 21
970.1119237631
 31
0.0
  0
LINE
  5
43F
330
1F
100
AcDbEntity
  8
0
  6
PHANTOM
 62
     8
370
     0
100
AcDbLine
 10
2219.1755825823
 20
969.1119237156
 30
0.0
 11
2187.1756071394
 21
969.1119237156
 31
0.0
  0
LINE
  5
440
330
1F
100
AcDbEntity
  8
0
  6
PHANTOM
 62
     8
370
     0
100
AcDbLine
 10
2187.9355961626
 20
800.851928541
 30
0.0
 11
2250.4155988043
 21
800.851928541
 31
0.0
  0
LINE
  5
441
330
1F
100
AcDbEntity
  8
0
  6
PHANTOM
 62
     8
370
     0
100
AcDbLine
 10
2248.7678880041
 20
804.2169683664
 30
0.0
 11
2189.5833069628
 21
804.2169683664
 31
0.0
  0
LINE
  5
442
330
1F
100
AcDbEntity
  8
0
  6
PHANTOM
 62
     8
370
     0
100
AcDbLine
 10
2219.1755825823
 20
797.1474998682
 30
0.0
 11
2248.7589175051
 21
797.1474998682
 31
0.0
  0
LINE
  5
443
330
1F
100
AcDbEntity
  8
0
  6
PHANTOM
 62
     8
370
     0
100
AcDbLine
 10
2189.5922476595
 20
797.1474998682
 30
0.0
 11
2219.1755825823
 21
797.1474998682
 31
0.0
  0
LINE
  5
444
330
1F
100
AcDbEntity
  8
0
  6
PHANTOM
 62
     8
370
     0
100
AcDbLine
 10
2239.7655898874
 20
777.0378016918
 30
0.0
 11
2198.5856050795
 21
777.0378016918
 31
0.0
  0
LINE
  5
445
330
1F
100
AcDbEntity
  8
0
  6
PHANTOM
 62
     8
370
     0
100
AcDbLine
 10
2193.3870369738
 20
759.3839638918
 30
0.0
 11
2244.9641281908
 21
759.3839638918
 31
0.0
  0
LINE
  5
446
330
1F
100
AcDbEntity
  8
0
  6
PHANTOM
 62
     8
370
     0
100
AcDbLine
 10
2219.1755825823
 20
760.449843952
 30
0.0
 11
2244.4023246115
 21
760.449843952
 31
0.0
  0
LINE
  5
447
330
1F
100
AcDbEntity
  8
0
  6
PHANTOM
 62
     8
370
     0
100
AcDbLine
 10
2193.9488703554
 20
760.449843952
 30
0.0
 11
2219.1755825823
 21
760.449843952
 31
0.0
  0
LINE
  5
448
330
1F
100
AcDbEntity
  8
0
  6
PHANTOM
 62
     8
370
     0
100
AcDbLine
 10
2193.6755830591
 20
745.2349388092
 30
0.0
 11
2244.6755821055
 21
745.2349388092
 31
0.0
  0
LINE
  5
449
330
1F
100
AcDbEntity
  8
0
  6
PHANTOM
 62
     8
370
     0
100
AcDbLine
 10
2240.4744083231
 20
749.7250163048
 30
0.0
 11
2197.8767568415
 21
749.7250163048
 31
0.0
  0
LINE
  5
44A
330
1F
100
AcDbEntity
  8
0
  6
PHANTOM
 62
     8
370
     0
100
AcDbLine
 10
2198.5856050795
 20
776.0019176691
 30
0.0
 11
2239.7655898874
 21
776.0019176691
 31
0.0
  0
LINE
  5
44B
330
1F
100
AcDbEntity
  8
0
  6
PHANTOM
 62
     8
370
     0
100
AcDbLine
 10
2238.7006038969
 20
752.0919167488
 30
0.0
 11
2199.65059107
 21
752.0919167488
 31
0.0
  0
LINE
  5
44C
330
1F
100
AcDbEntity
  8
0
  6
PHANTOM
 62
     8
370
     0
100
AcDbLine
 10
2219.1755825823
 20
751.6208165377
 30
0.0
 11
2238.7006038969
 21
751.6208165377
 31
0.0
  0
LINE
  5
44D
330
1F
100
AcDbEntity
  8
0
  6
PHANTOM
 62
     8
370
     0
100
AcDbLine
 10
2199.65059107
 20
751.6208165377
 30
0.0
 11
2219.1755825823
 21
751.6208165377
 31
0.0
  0
LINE
  5
44E
330
1F
100
AcDbEntity
  8
0
  6
PHANTOM
 62
     8
370
     0
100
AcDbLine
 10
2219.1755825823
 20
198.217468807
 30
0.0
 11
2235.4411238974
 21
198.217468807
 31
0.0
  0
LINE
  5
44F
330
1F
100
AcDbEntity
  8
0
  6
PHANTOM
 62
     8
370
     0
100
AcDbLine
 10
2202.9100710695
 20
198.217468807
 30
0.0
 11
2219.1755825823
 21
198.217468807
 31
0.0
  0
LINE
  5
450
330
1F
100
AcDbEntity
  8
0
  6
PHANTOM
 62
     8
370
     0
100
AcDbLine
 10
2219.1755825823
 20
181.0698085516
 30
0.0
 11
2201.1756057089
 21
181.0698085516
 31
0.0
  0
LINE
  5
451
330
1F
100
AcDbEntity
  8
0
  6
PHANTOM
 62
     8
370
     0
100
AcDbLine
 10
2237.175589258
 20
181.0698085516
 30
0.0
 11
2219.1755825823
 21
181.0698085516
 31
0.0
  0
LINE
  5
452
330
1F
100
AcDbEntity
  8
0
  6
PHANTOM
 62
     8
370
     0
100
AcDbLine
 10
2201.1756057089
 20
180.7349496572
 30
0.0
 11
2237.175589258
 21
180.7349496572
 31
0.0
  0
LINE
  5
453
330
1F
100
AcDbEntity
  8
0
  6
PHANTOM
 62
     8
370
     0
100
AcDbLine
 10
2219.1755825823
 20
184.4464116781
 30
0.0
 11
2234.5966452902
 21
184.4464116781
 31
0.0
  0
LINE
  5
454
330
1F
100
AcDbEntity
  8
0
  6
PHANTOM
 62
     8
370
     0
100
AcDbLine
 10
2203.7545496767
 20
184.4464116781
 30
0.0
 11
2219.1755825823
 21
184.4464116781
 31
0.0
  0
LINE
  5
455
330
1F
100
AcDbEntity
  8
0
  6
PHANTOM
 62
     8
370
     0
100
AcDbLine
 10
2219.1755825823
 20
196.3554197042
 30
0.0
 11
2234.1247851198
 21
196.3554197042
 31
0.0
  0
LINE
  5
456
330
1F
100
AcDbEntity
  8
0
  6
PHANTOM
 62
     8
370
     0
100
AcDbLine
 10
2204.2263800448
 20
196.3554197042
 30
0.0
 11
2219.1755825823
 21
196.3554197042
 31
0.0
  0
LINE
  5
457
330
1F
100
AcDbEntity
  8
0
  6
PHANTOM
 62
     8
370
     0
100
AcDbLine
 10
2208.1756049937
 20
190.2349167555
 30
0.0
 11
2230.1755899733
 21
190.2349167555
 31
0.0
  0
LINE
  5
458
330
1F
100
AcDbEntity
  8
0
  6
PHANTOM
 62
     8
370
     0
100
AcDbLine
 10
2230.1755899733
 20
190.7167607038
 30
0.0
 11
2208.1756049937
 21
190.7167607038
 31
0.0
  0
LINE
  5
459
330
1F
100
AcDbEntity
  8
0
  6
PHANTOM
 62
     8
370
     0
100
AcDbLine
 10
2233.1507558172
 20
176.7611079901
 30
0.0
 11
2205.2004391497
 21
176.7611079901
 31
0.0
  0
LINE
  5
45A
330
1F
100
AcDbEntity
  8
0
  6
PHANTOM
 62
     8
370
     0
100
AcDbLine
 10
2219.1755825823
 20
114.1826086729
 30
0.0
 11
2229.8711592501
 21
114.1826086729
 31
0.0
  0
LINE
  5
45B
330
1F
100
AcDbEntity
  8
0
  6
PHANTOM
 62
     8
370
     0
100
AcDbLine
 10
2208.4800357168
 20
114.1826086729
 30
0.0
 11
2219.1755825823
 21
114.1826086729
 31
0.0
  0
ENDSEC
  0
SECTION
  2
OBJECTS
  0
DICTIONARY
  5
C
330
0
100
AcDbDictionary
281
     1
  3
ACAD_GROUP
350
D
  3
ACAD_LAYOUT
350
1A
  3
ACAD_MLINESTYLE
350
17
  3
ACAD_PLOTSETTINGS
350
19
  3
ACAD_PLOTSTYLENAME
350
E
  3
ACAD_SCALELIST
350
47
  0
DICTIONARY
  5
D
102
{ACAD_REACTORS
330
C
102
}
330
C
100
AcDbDictionary
281
     1
  0
DICTIONARY
  5
1A
102
{ACAD_REACTORS
330
C
102
}
330
C
100
AcDbDictionary
281
     1
  3
Layout1
350
1E
  3
Layout2
350
26
  3
Model
350
22
  0
DICTIONARY
  5
17
102
{ACAD_REACTORS
330
C
102
}
330
C
100
AcDbDictionary
281
     1
  3
Standard
350
18
  0
DICTIONARY
  5
19
102
{ACAD_REACTORS
330
C
102
}
330
C
100
AcDbDictionary
281
     1
  0
ACDBDICTIONARYWDFLT
  5
E
102
{ACAD_REACTORS
330
C
102
}
330
C
100
AcDbDictionary
281
     1
  3
Normal
350
F
100
AcDbDictionaryWithDefault
340
F
  0
DICTIONARY
  5
47
102
{ACAD_REACTORS
330
C
102
}
330
C
100
AcDbDictionary
281
     1
  3
A0
350
48
  3
A1
350
49
  3
A2
350
4A
  3
A3
350
4B
  3
A4
350
4C
  3
A5
350
4D
  3
A6
350
4E
  3
A7
350
4F
  3
A8
350
50
  3
A9
350
51
  3
B0
350
52
  3
B1
350
53
  3
B2
350
54
  3
B3
350
55
  3
B4
350
56
  3
B5
350
57
  3
B6
350
58
  3
B7
350
59
  3
B8
350
5A
  3
B9
350
5B
  3
C0
350
5C
  3
C1
350
5D
  3
C2
350
5E
  3
C3
350
5F
  3
C4
350
60
  3
C5
350
61
  3
C6
350
62
  3
C7
350
63
  3
C8
350
64
  3
C9
350
65
  3
D0
350
66
  3
D1
350
67
  3
D2
350
68
  0
LAYOUT
  5
1E
102
{ACAD_REACTORS
330
1A
102
}
330
1A
100
AcDbPlotSettings
  1

  2
none_device
  4

  6

 40
0.0
 41
0.0
 42
0.0
 43
0.0
 44
0.0
 45
0.0
 46
0.0
 47
0.0
 48
0.0
 49
0.0
140
0.0
141
0.0
142
1.0
143
1.0
 70
   688
 72
     1
 73
     0
 74
     5
  7

 75
    16
147
1.0
148
0.0
149
0.0
100
AcDbLayout
  1
Layout1
 70
     1
 71
     1
 10
0.0
 20
0.0
 11
420.0
 21
297.0
 12
0.0
 22
0.0
 32
0.0
 14
1.0000000000E+20
 24
1.0000000000E+20
 34
1.0000000000E+20
 15
-1.0000000000E+20
 25
-1.0000000000E+20
 35
-1.0000000000E+20
146
0.0
 13
0.0
 23
0.0
 33
0.0
 16
1.0
 26
0.0
 36
0.0
 17
0.0
 27
1.0
 37
0.0
 76
     0
330
1B
  0
LAYOUT
  5
26
102
{ACAD_REACTORS
330
1A
102
}
330
1A
100
AcDbPlotSettings
  1

  2
none_device
  4

  6

 40
0.0
 41
0.0
 42
0.0
 43
0.0
 44
0.0
 45
0.0
 46
0.0
 47
0.0
 48
0.0
 49
0.0
140
0.0
141
0.0
142
1.0
143
1.0
 70
   688
 72
     1
 73
     0
 74
     5
  7

 75
    16
147
1.0
148
0.0
149
0.0
100
AcDbLayout
  1
Layout2
 70
     1
 71
     2
 10
0.0
 20
0.0
 11
0.0
 21
0.0
 12
0.0
 22
0.0
 32
0.0
 14
0.0
 24
0.0
 34
0.0
 15
0.0
 25
0.0
 35
0.0
146
0.0
 13
0.0
 23
0.0
 33
0.0
 16
1.0
 26
0.0
 36
0.0
 17
0.0
 27
1.0
 37
0.0
 76
     0
330
23
  0
LAYOUT
  5
22
102
{ACAD_REACTORS
330
1A
102
}
330
1A
100
AcDbPlotSettings
  1

  2
none_device
  4
Letter_(8.50_x_11.00_Inches)
  6

 40
6.35
 41
6.35
 42
6.35000508
 43
6.35000508
 44
215.9
 45
279.4
 46
0.0
 47
0.0
 48
0.0
 49
0.0
140
0.0
141
0.0
142
1.0
143
1.0
 70
  1712
 72
     1
 73
     0
 74
     0
  7

 75
     0
147
1.0
148
0.0
149
0.0
100
AcDbLayout
  1
Model
 70
     1
 71
     0
 10
0.0
 20
0.0
 11
3000.0
 21
2000.0
 12
0.0
 22
0.0
 32
0.0
 14
0.0
 24
0.0
 34
0.0
 15
3000.0
 25
2000.0
 35
0.0
146
0.0
 13
0.0
 23
0.0
 33
0.0
 16
1.0
 26
0.0
 36
0.0
 17
0.0
 27
1.0
 37
0.0
 76
     0
330
1F
331
29
  0
MLINESTYLE
  5
18
102
{ACAD_REACTORS
330
17
102
}
330
17
100
AcDbMlineStyle
  2
Standard
 70
     0
  3

 62
   256
 51
90.0
 52
90.0
 71
     2
 49
0.5
 62
   256
  6
BYLAYER
 49
-0.5
 62
   256
  6
BYLAYER
  0
ACDBPLACEHOLDER
  5
F
102
{ACAD_REACTORS
330
E
102
}
330
E
  0
SCALE
  5
48
102
{ACAD_REACTORS
330
47
102
}
330
47
100
AcDbScale
 70
     0
300
1:1
140
1.0
141
1.0
290
     1
  0
SCALE
  5
49
102
{ACAD_REACTORS
330
47
102
}
330
47
100
AcDbScale
 70
     0
300
1:2
140
1.0
141
2.0
290
     0
  0
SCALE
  5
4A
102
{ACAD_REACTORS
330
47
102
}
330
47
100
AcDbScale
 70
     0
300
1:4
140
1.0
141
4.0
290
     0
  0
SCALE
  5
4B
102
{ACAD_REACTORS
330
47
102
}
330
47
100
AcDbScale
 70
     0
300
1:5
140
1.0
141
5.0
290
     0
  0
SCALE
  5
4C
102
{ACAD_REACTORS
330
47
102
}
330
47
100
AcDbScale
 70
     0
300
1:8
140
1.0
141
8.0
290
     0
  0
SCALE
  5
4D
102
{ACAD_REACTORS
330
47
102
}
330
47
100
AcDbScale
 70
     0
300
1:10
140
1.0
141
10.0
290
     0
  0
SCALE
  5
4E
102
{ACAD_REACTORS
330
47
102
}
330
47
100
AcDbScale
 70
     0
300
1:16
140
1.0
141
16.0
290
     0
  0
SCALE
  5
4F
102
{ACAD_REACTORS
330
47
102
}
330
47
100
AcDbScale
 70
     0
300
1:20
140
1.0
141
20.0
290
     0
  0
SCALE
  5
50
102
{ACAD_REACTORS
330
47
102
}
330
47
100
AcDbScale
 70
     0
300
1:30
140
1.0
141
30.0
290
     0
  0
SCALE
  5
51
102
{ACAD_REACTORS
330
47
102
}
330
47
100
AcDbScale
 70
     0
300
1:40
140
1.0
141
40.0
290
     0
  0
SCALE
  5
52
102
{ACAD_REACTORS
330
47
102
}
330
47
100
AcDbScale
 70
     0
300
1:50
140
1.0
141
50.0
290
     0
  0
SCALE
  5
53
102
{ACAD_REACTORS
330
47
102
}
330
47
100
AcDbScale
 70
     0
300
1:100
140
1.0
141
100.0
290
     0
  0
SCALE
  5
54
102
{ACAD_REACTORS
330
47
102
}
330
47
100
AcDbScale
 70
     0
300
2:1
140
2.0
141
1.0
290
     0
  0
SCALE
  5
55
102
{ACAD_REACTORS
330
47
102
}
330
47
100
AcDbScale
 70
     0
300
4:1
140
4.0
141
1.0
290
     0
  0
SCALE
  5
56
102
{ACAD_REACTORS
330
47
102
}
330
47
100
AcDbScale
 70
     0
300
8:1
140
8.0
141
1.0
290
     0
  0
SCALE
  5
57
102
{ACAD_REACTORS
330
47
102
}
330
47
100
AcDbScale
 70
     0
300
10:1
140
10.0
141
1.0
290
     0
  0
SCALE
  5
58
102
{ACAD_REACTORS
330
47
102
}
330
47
100
AcDbScale
 70
     0
300
100:1
140
100.0
141
1.0
290
     0
  0
SCALE
  5
59
102
{ACAD_REACTORS
330
47
102
}
330
47
100
AcDbScale
 70
     0
300
1/128" = 1'-0"
140
0.0078125
141
12.0
290
     0
  0
SCALE
  5
5A
102
{ACAD_REACTORS
330
47
102
}
330
47
100
AcDbScale
 70
     0
300
1/64" = 1'-0"
140
0.015625
141
12.0
290
     0
  0
SCALE
  5
5B
102
{ACAD_REACTORS
330
47
102
}
330
47
100
AcDbScale
 70
     0
300
1/32" = 1'-0"
140
0.03125
141
12.0
290
     0
  0
SCALE
  5
5C
102
{ACAD_REACTORS
330
47
102
}
330
47
100
AcDbScale
 70
     0
300
1/16" = 1'-0"
140
0.0625
141
12.0
290
     0
  0
SCALE
  5
5D
102
{ACAD_REACTORS
330
47
102
}
330
47
100
AcDbScale
 70
     0
300
3/32" = 1'-0"
140
0.09375
141
12.0
290
     0
  0
SCALE
  5
5E
102
{ACAD_REACTORS
330
47
102
}
330
47
100
AcDbScale
 70
     0
300
1/8" = 1'-0"
140
0.125
141
12.0
290
     0
  0
SCALE
  5
5F
102
{ACAD_REACTORS
330
47
102
}
330
47
100
AcDbScale
 70
     0
300
3/16" = 1'-0"
140
0.1875
141
12.0
290
     0
  0
SCALE
  5
60
102
{ACAD_REACTORS
330
47
102
}
330
47
100
AcDbScale
 70
     0
300
1/4" = 1'-0"
140
0.25
141
12.0
290
     0
  0
SCALE
  5
61
102
{ACAD_REACTORS
330
47
102
}
330
47
100
AcDbScale
 70
     0
300
3/8" = 1'-0"
140
0.375
141
12.0
290
     0
  0
SCALE
  5
62
102
{ACAD_REACTORS
330
47
102
}
330
47
100
AcDbScale
 70
     0
300
1/2" = 1'-0"
140
0.5
141
12.0
290
     0
  0
SCALE
  5
63
102
{ACAD_REACTORS
330
47
102
}
330
47
100
AcDbScale
 70
     0
300
3/4" = 1'-0"
140
0.75
141
12.0
290
     0
  0
SCALE
  5
64
102
{ACAD_REACTORS
330
47
102
}
330
47
100
AcDbScale
 70
     0
300
1" = 1'-0"
140
1.0
141
12.0
290
     0
  0
SCALE
  5
65
102
{ACAD_REACTORS
330
47
102
}
330
47
100
AcDbScale
 70
     0
300
1-1/2" = 1'-0"
140
1.5
141
12.0
290
     0
  0
SCALE
  5
66
102
{ACAD_REACTORS
330
47
102
}
330
47
100
AcDbScale
 70
     0
300
3" = 1'-0"
140
3.0
141
12.0
290
     0
  0
SCALE
  5
67
102
{ACAD_REACTORS
330
47
102
}
330
47
100
AcDbScale
 70
     0
300
6" = 1'-0"
140
6.0
141
12.0
290
     0
  0
SCALE
  5
68
102
{ACAD_REACTORS
330
47
102
}
330
47
100
AcDbScale
 70
     0
300
1'-0" = 1'-0"
140
12.0
141
12.0
290
     0
  0
ENDSEC
  0
EOF
